ISO-10303-21;
HEADER;
FILE_DESCRIPTION (( 'STEP AP203' ),
    '1' );
FILE_NAME ('680.step',
    '2021-12-06T13:00:16',
    ( '' ),
    ( '' ),
    'SwSTEP 2.0',
    'SolidWorks 2019',
    '' );
FILE_SCHEMA (( 'CONFIG_CONTROL_DESIGN' ));
ENDSEC;

DATA;
#1 = MECHANICAL_CONTEXT ( 'NONE', #125, 'mechanical' ) ;
#2 = VERTEX_POINT ( 'NONE', #139 ) ;
#3 = DATE_AND_TIME ( #11, #153 ) ;
#4 = DATE_AND_TIME ( #21, #160 ) ;
#5 = FACE_OUTER_BOUND ( 'NONE', #137, .T. ) ;
#6 = CIRCLE ( 'NONE', #130, 11.00000000000000000 ) ;
#7 = ADVANCED_FACE ( 'NONE', ( #5, #94 ), #141, .T. ) ;
#8 = CARTESIAN_POINT ( 'NONE',  ( 4.189777606611755293E-15, -1.469576158976822320E-16, 1.199999999999998623 ) ) ;
#9 = ORIENTED_EDGE ( 'NONE', *, *, #167, .T. ) ;
#10 = DATE_TIME_ROLE ( 'creation_date' ) ;
#11 = CALENDAR_DATE ( 2021, 6, 12 ) ;
#12 = PERSON_AND_ORGANIZATION ( #164, #80 ) ;
#13 = EDGE_LOOP ( 'NONE', ( #39 ) ) ;
#14 = DIRECTION ( 'NONE',  ( -3.491481338843133355E-15, 1.224646799147353207E-16, -1.000000000000000000 ) ) ;
#15 = EDGE_CURVE ( 'NONE', #2, #2, #85, .T. ) ;
#16 = DIRECTION ( 'NONE',  ( -3.491481338843133355E-15, 1.224646799147353207E-16, -1.000000000000000000 ) ) ;
#17 = FACE_OUTER_BOUND ( 'NONE', #115, .T. ) ;
#18 = DIRECTION ( 'NONE',  ( -3.491481338843133355E-15, 1.224646799147353207E-16, -1.000000000000000000 ) ) ;
#19 = AXIS2_PLACEMENT_3D ( 'NONE', #118, #129, #165 ) ;
#20 = CLOSED_SHELL ( 'NONE', ( #7, #154, #150, #128 ) ) ;
#21 = CALENDAR_DATE ( 2021, 6, 12 ) ;
#22 = FACE_OUTER_BOUND ( 'NONE', #13, .T. ) ;
#23 = VERTEX_POINT ( 'NONE', #119 ) ;
#24 = PERSON_AND_ORGANIZATION_ROLE ( 'design_supplier' ) ;
#25 = EDGE_LOOP ( 'NONE', ( #71 ) ) ;
#26 = APPROVAL_STATUS ( 'not_yet_approved' ) ;
#27 = PERSON_AND_ORGANIZATION ( #164, #80 ) ;
#28 = ORIENTED_EDGE ( 'NONE', *, *, #15, .F. ) ;
#29 = FACE_OUTER_BOUND ( 'NONE', #134, .T. ) ;
#30 = DIRECTION ( 'NONE',  ( -3.491481338843133355E-15, 1.224646799147353207E-16, -1.000000000000000000 ) ) ;
#31 = PRODUCT_RELATED_PRODUCT_CATEGORY ( 'detail', '', ( #33 ) ) ;
#32 = ADVANCED_BREP_SHAPE_REPRESENTATION ( '680', ( #74, #78 ), #37 ) ;
#33 = PRODUCT ( '680', '680', '', ( #1 ) ) ;
#34 = DATE_AND_TIME ( #123, #91 ) ;
#35 = ORIENTED_EDGE ( 'NONE', *, *, #15, .T. ) ;
#36 = DATE_AND_TIME ( #136, #52 ) ;
#37 =( GEOMETRIC_REPRESENTATION_CONTEXT ( 3 ) GLOBAL_UNCERTAINTY_ASSIGNED_CONTEXT ( ( #70 ) ) GLOBAL_UNIT_ASSIGNED_CONTEXT ( ( #38, #124, #69 ) ) REPRESENTATION_CONTEXT ( 'NONE', 'WORKASPACE' ) );
#38 =( LENGTH_UNIT ( ) NAMED_UNIT ( * ) SI_UNIT ( .MILLI., .METRE. ) );
#39 = ORIENTED_EDGE ( 'NONE', *, *, #47, .F. ) ;
#40 = PLANE ( 'NONE',  #99 ) ;
#41 = PERSON_AND_ORGANIZATION ( #164, #80 ) ;
#42 = AXIS2_PLACEMENT_3D ( 'NONE', #168, #30, #110 ) ;
#43 = CC_DESIGN_PERSON_AND_ORGANIZATION_ASSIGNMENT ( #12, #24, ( #83 ) ) ;
#44 = CARTESIAN_POINT ( 'NONE',  ( 4.189777606611753715E-15, 11.00000000000000000, 1.199999999999998179 ) ) ;
#45 = DIRECTION ( 'NONE',  ( 4.237045877651918877E-31, 1.000000000000000000, 1.246832498358330099E-16 ) ) ;
#46 = DATE_AND_TIME ( #142, #64 ) ;
#47 = EDGE_CURVE ( 'NONE', #23, #23, #109, .T. ) ;
#48 = PRODUCT_DEFINITION_SHAPE ( 'NONE', 'NONE',  #96 ) ;
#49 = AXIS2_PLACEMENT_3D ( 'NONE', #8, #16, #146 ) ;
#50 = APPROVAL_PERSON_ORGANIZATION ( #41, #98, #151 ) ;
#51 = VERTEX_POINT ( 'NONE', #105 ) ;
#52 = LOCAL_TIME ( 14, 0, 16.00000000000000000, #86 ) ;
#53 = CARTESIAN_POINT ( 'NONE',  ( 0.0000000000000000000, 0.0000000000000000000, 0.0000000000000000000 ) ) ;
#54 = APPROVAL_STATUS ( 'not_yet_approved' ) ;
#55 = APPROVAL_DATE_TIME ( #4, #98 ) ;
#56 = APPROVAL_ROLE ( '' ) ;
#57 = CC_DESIGN_PERSON_AND_ORGANIZATION_ASSIGNMENT ( #89, #140, ( #59 ) ) ;
#58 = CIRCLE ( 'NONE', #49, 11.00000000000000000 ) ;
#59 = SECURITY_CLASSIFICATION ( '', '', #93 ) ;
#60 = CC_DESIGN_APPROVAL ( #162, ( #96 ) ) ;
#61 = CC_DESIGN_PERSON_AND_ORGANIZATION_ASSIGNMENT ( #27, #75, ( #96 ) ) ;
#62 = APPROVAL_PERSON_ORGANIZATION ( #169, #107, #112 ) ;
#63 = CARTESIAN_POINT ( 'NONE',  ( -4.703414590486653942E-30, 1.649735760928043369E-31, -1.347111479062088405E-15 ) ) ;
#64 = LOCAL_TIME ( 14, 0, 16.00000000000000000, #157 ) ;
#65 = PERSON_AND_ORGANIZATION ( #164, #80 ) ;
#66 = DATE_TIME_ROLE ( 'classification_date' ) ;
#67 = CC_DESIGN_DATE_AND_TIME_ASSIGNMENT ( #3, #66, ( #59 ) ) ;
#68 = ORIENTED_EDGE ( 'NONE', *, *, #159, .T. ) ;
#69 =( NAMED_UNIT ( * ) SI_UNIT ( $, .STERADIAN. ) SOLID_ANGLE_UNIT ( ) );
#70 = UNCERTAINTY_MEASURE_WITH_UNIT (LENGTH_MEASURE( 1.000000000000000082E-05 ), #38, 'distance_accuracy_value', 'NONE');
#71 = ORIENTED_EDGE ( 'NONE', *, *, #159, .F. ) ;
#72 = DIRECTION ( 'NONE',  ( 1.000000000000000000, 0.0000000000000000000, 0.0000000000000000000 ) ) ;
#73 = CC_DESIGN_APPROVAL ( #107, ( #59 ) ) ;
#74 = MANIFOLD_SOLID_BREP ( 'Corps-Déplacer/Copier1', #20 ) ;
#75 = PERSON_AND_ORGANIZATION_ROLE ( 'creator' ) ;
#76 = CARTESIAN_POINT ( 'NONE',  ( -6.199955596550590943E-30, 11.00000000000000000, -1.775737858763662409E-15 ) ) ;
#77 = SHAPE_DEFINITION_REPRESENTATION ( #48, #32 ) ;
#78 = AXIS2_PLACEMENT_3D ( 'NONE', #53, #88, #72 ) ;
#79 = FACE_OUTER_BOUND ( 'NONE', #92, .T. ) ;
#80 = ORGANIZATION ( 'UNSPECIFIED', 'UNSPECIFIED', '' ) ;
#81 = CC_DESIGN_PERSON_AND_ORGANIZATION_ASSIGNMENT ( #155, #156, ( #83 ) ) ;
#82 = DIRECTION ( 'NONE',  ( 4.275831445896958607E-31, 1.000000000000000000, 1.224646799147353207E-16 ) ) ;
#83 = PRODUCT_DEFINITION_FORMATION_WITH_SPECIFIED_SOURCE ( 'ANY', '', #33, .NOT_KNOWN. ) ;
#84 = FACE_BOUND ( 'NONE', #152, .T. ) ;
#85 = CIRCLE ( 'NONE', #19, 40.00000000000000000 ) ;
#86 = COORDINATED_UNIVERSAL_TIME_OFFSET ( 1, 0, .AHEAD. ) ;
#87 = ORIENTED_EDGE ( 'NONE', *, *, #167, .F. ) ;
#88 = DIRECTION ( 'NONE',  ( 0.0000000000000000000, 0.0000000000000000000, 1.000000000000000000 ) ) ;
#89 = PERSON_AND_ORGANIZATION ( #164, #80 ) ;
#90 = APPROVAL_STATUS ( 'not_yet_approved' ) ;
#91 = LOCAL_TIME ( 14, 0, 16.00000000000000000, #161 ) ;
#92 = EDGE_LOOP ( 'NONE', ( #28 ) ) ;
#93 = SECURITY_CLASSIFICATION_LEVEL ( 'unclassified' ) ;
#94 = FACE_BOUND ( 'NONE', #126, .T. ) ;
#95 = APPROVAL_DATE_TIME ( #46, #107 ) ;
#96 = PRODUCT_DEFINITION ( 'UNKNOWN', '', #83, #133 ) ;
#97 = CARTESIAN_POINT ( 'NONE',  ( 0.0000000000000000000, 0.0000000000000000000, 0.0000000000000000000 ) ) ;
#98 = APPROVAL ( #90, 'UNSPECIFIED' ) ;
#99 = AXIS2_PLACEMENT_3D ( 'NONE', #44, #158, #147 ) ;
#100 = CYLINDRICAL_SURFACE ( 'NONE', #127, 40.00000000000000000 ) ;
#101 = CARTESIAN_POINT ( 'NONE',  ( 4.189777606611742671E-15, -1.469576158976817636E-16, 1.199999999999994849 ) ) ;
#102 = VERTEX_POINT ( 'NONE', #114 ) ;
#103 = APPLICATION_PROTOCOL_DEFINITION ( 'international standard', 'config_control_design', 1994, #148 ) ;
#104 = CC_DESIGN_DATE_AND_TIME_ASSIGNMENT ( #34, #10, ( #96 ) ) ;
#105 = CARTESIAN_POINT ( 'NONE',  ( 4.189777606611759237E-15, 11.00000000000000000, 1.199999999999999956 ) ) ;
#106 = DIRECTION ( 'NONE',  ( 4.275831445896957731E-31, 1.000000000000000000, 1.224646799147353207E-16 ) ) ;
#107 = APPROVAL ( #54, 'UNSPECIFIED' ) ;
#108 = CYLINDRICAL_SURFACE ( 'NONE', #42, 11.00000000000000000 ) ;
#109 = CIRCLE ( 'NONE', #144, 40.00000000000000000 ) ;
#110 = DIRECTION ( 'NONE',  ( 4.275831445896957731E-31, 1.000000000000000000, 1.224646799147353207E-16 ) ) ;
#111 = PERSON_AND_ORGANIZATION ( #164, #80 ) ;
#112 = APPROVAL_ROLE ( '' ) ;
#113 = AXIS2_PLACEMENT_3D ( 'NONE', #76, #14, #166 ) ;
#114 = CARTESIAN_POINT ( 'NONE',  ( 0.0000000000000000000, 11.00000000000000000, 0.0000000000000000000 ) ) ;
#115 = EDGE_LOOP ( 'NONE', ( #9 ) ) ;
#116 = CC_DESIGN_PERSON_AND_ORGANIZATION_ASSIGNMENT ( #65, #163, ( #33 ) ) ;
#117 = FACE_OUTER_BOUND ( 'NONE', #25, .T. ) ;
#118 = CARTESIAN_POINT ( 'NONE',  ( -1.710332578358783302E-29, 5.999039130647430431E-31, -4.898587196589413026E-15 ) ) ;
#119 = CARTESIAN_POINT ( 'NONE',  ( 4.189777606611759237E-15, 40.00000000000000000, 1.199999999999999956 ) ) ;
#120 = CC_DESIGN_SECURITY_CLASSIFICATION ( #59, ( #83 ) ) ;
#121 = APPROVAL_DATE_TIME ( #36, #162 ) ;
#122 = ORIENTED_EDGE ( 'NONE', *, *, #47, .T. ) ;
#123 = CALENDAR_DATE ( 2021, 6, 12 ) ;
#124 =( NAMED_UNIT ( * ) PLANE_ANGLE_UNIT ( ) SI_UNIT ( $, .RADIAN. ) );
#125 = APPLICATION_CONTEXT ( 'configuration controlled 3d designs of mechanical parts and assemblies' ) ;
#126 = EDGE_LOOP ( 'NONE', ( #87 ) ) ;
#127 = AXIS2_PLACEMENT_3D ( 'NONE', #97, #18, #82 ) ;
#128 = ADVANCED_FACE ( 'NONE', ( #17, #117 ), #108, .F. ) ;
#129 = DIRECTION ( 'NONE',  ( -3.491481338843133355E-15, 1.224646799147353207E-16, -1.000000000000000000 ) ) ;
#130 = AXIS2_PLACEMENT_3D ( 'NONE', #63, #135, #106 ) ;
#131 = COORDINATED_UNIVERSAL_TIME_OFFSET ( 1, 0, .AHEAD. ) ;
#132 = APPLICATION_PROTOCOL_DEFINITION ( 'international standard', 'config_control_design', 1994, #125 ) ;
#133 = DESIGN_CONTEXT ( 'detailed design', #148, 'design' ) ;
#134 = EDGE_LOOP ( 'NONE', ( #122 ) ) ;
#135 = DIRECTION ( 'NONE',  ( -3.491481338843133355E-15, 1.224646799147353207E-16, -1.000000000000000000 ) ) ;
#136 = CALENDAR_DATE ( 2021, 6, 12 ) ;
#137 = EDGE_LOOP ( 'NONE', ( #35 ) ) ;
#138 = COORDINATED_UNIVERSAL_TIME_OFFSET ( 1, 0, .AHEAD. ) ;
#139 = CARTESIAN_POINT ( 'NONE',  ( 0.0000000000000000000, 40.00000000000000000, 0.0000000000000000000 ) ) ;
#140 = PERSON_AND_ORGANIZATION_ROLE ( 'classification_officer' ) ;
#141 = PLANE ( 'NONE',  #113 ) ;
#142 = CALENDAR_DATE ( 2021, 6, 12 ) ;
#143 = DIRECTION ( 'NONE',  ( -3.491481338843133355E-15, 1.224646799147353207E-16, -1.000000000000000000 ) ) ;
#144 = AXIS2_PLACEMENT_3D ( 'NONE', #101, #143, #45 ) ;
#145 = CC_DESIGN_APPROVAL ( #98, ( #83 ) ) ;
#146 = DIRECTION ( 'NONE',  ( 4.202028969572151271E-31, 1.000000000000000000, 1.182766006347823109E-16 ) ) ;
#147 = DIRECTION ( 'NONE',  ( -4.275831445896958607E-31, -1.000000000000000000, -1.224646799147353207E-16 ) ) ;
#148 = APPLICATION_CONTEXT ( 'configuration controlled 3d designs of mechanical parts and assemblies' ) ;
#149 = APPROVAL_PERSON_ORGANIZATION ( #111, #162, #56 ) ;
#150 = ADVANCED_FACE ( 'NONE', ( #84, #22 ), #40, .T. ) ;
#151 = APPROVAL_ROLE ( '' ) ;
#152 = EDGE_LOOP ( 'NONE', ( #68 ) ) ;
#153 = LOCAL_TIME ( 14, 0, 16.00000000000000000, #131 ) ;
#154 = ADVANCED_FACE ( 'NONE', ( #29, #79 ), #100, .T. ) ;
#155 = PERSON_AND_ORGANIZATION ( #164, #80 ) ;
#156 = PERSON_AND_ORGANIZATION_ROLE ( 'creator' ) ;
#157 = COORDINATED_UNIVERSAL_TIME_OFFSET ( 1, 0, .AHEAD. ) ;
#158 = DIRECTION ( 'NONE',  ( 3.491481338843133355E-15, -1.224646799147353207E-16, 1.000000000000000000 ) ) ;
#159 = EDGE_CURVE ( 'NONE', #51, #51, #58, .T. ) ;
#160 = LOCAL_TIME ( 14, 0, 16.00000000000000000, #138 ) ;
#161 = COORDINATED_UNIVERSAL_TIME_OFFSET ( 1, 0, .AHEAD. ) ;
#162 = APPROVAL ( #26, 'UNSPECIFIED' ) ;
#163 = PERSON_AND_ORGANIZATION_ROLE ( 'design_owner' ) ;
#164 = PERSON ( 'UNSPECIFIED', 'UNSPECIFIED', 'UNSPECIFIED', ('UNSPECIFIED'), ('UNSPECIFIED'), ('UNSPECIFIED') ) ;
#165 = DIRECTION ( 'NONE',  ( 4.275831445896958607E-31, 1.000000000000000000, 1.224646799147353207E-16 ) ) ;
#166 = DIRECTION ( 'NONE',  ( 4.275831445896958607E-31, 1.000000000000000000, 1.224646799147353207E-16 ) ) ;
#167 = EDGE_CURVE ( 'NONE', #102, #102, #6, .T. ) ;
#168 = CARTESIAN_POINT ( 'NONE',  ( 0.0000000000000000000, 0.0000000000000000000, 0.0000000000000000000 ) ) ;
#169 = PERSON_AND_ORGANIZATION ( #164, #80 ) ;
ENDSEC;
END-ISO-10303-21;
