ISO-10303-21;
HEADER;
FILE_DESCRIPTION (( 'STEP AP203' ),
    '1' );
FILE_NAME ('677.step',
    '2021-12-06T13:00:15',
    ( '' ),
    ( '' ),
    'SwSTEP 2.0',
    'SolidWorks 2019',
    '' );
FILE_SCHEMA (( 'CONFIG_CONTROL_DESIGN' ));
ENDSEC;

DATA;
#1 = ADVANCED_FACE ( 'NONE', ( #27, #4 ), #105, .T. ) ;
#2 = APPROVAL_PERSON_ORGANIZATION ( #101, #54, #159 ) ;
#3 = ORIENTED_EDGE ( 'NONE', *, *, #127, .T. ) ;
#4 = FACE_OUTER_BOUND ( 'NONE', #25, .T. ) ;
#5 = FACE_OUTER_BOUND ( 'NONE', #86, .T. ) ;
#6 = CC_DESIGN_PERSON_AND_ORGANIZATION_ASSIGNMENT ( #91, #8, ( #106 ) ) ;
#7 = AXIS2_PLACEMENT_3D ( 'NONE', #55, #95, #121 ) ;
#8 = PERSON_AND_ORGANIZATION_ROLE ( 'creator' ) ;
#9 = APPROVAL_DATE_TIME ( #125, #35 ) ;
#10 = CC_DESIGN_PERSON_AND_ORGANIZATION_ASSIGNMENT ( #21, #39, ( #74 ) ) ;
#11 = EDGE_CURVE ( 'NONE', #109, #109, #38, .T. ) ;
#12 = LOCAL_TIME ( 14, 0, 15.00000000000000000, #64 ) ;
#13 = EDGE_LOOP ( 'NONE', ( #65 ) ) ;
#14 = EDGE_LOOP ( 'NONE', ( #96 ) ) ;
#15 = CARTESIAN_POINT ( 'NONE',  ( 2.094888803305856742E-15, -1.959434878635744029E-16, 0.5999999999999933165 ) ) ;
#16 = DIRECTION ( 'NONE',  ( 1.140221718905856154E-30, 1.000000000000000000, 3.265724797726276534E-16 ) ) ;
#17 = PERSON_AND_ORGANIZATION ( #63, #126 ) ;
#18 = APPLICATION_CONTEXT ( 'configuration controlled 3d designs of mechanical parts and assemblies' ) ;
#19 = APPROVAL_ROLE ( '' ) ;
#20 = COORDINATED_UNIVERSAL_TIME_OFFSET ( 1, 0, .AHEAD. ) ;
#21 = PERSON_AND_ORGANIZATION ( #63, #126 ) ;
#22 = COORDINATED_UNIVERSAL_TIME_OFFSET ( 1, 0, .AHEAD. ) ;
#23 = DESIGN_CONTEXT ( 'detailed design', #18, 'design' ) ;
#24 = CIRCLE ( 'NONE', #123, 20.00000000000000000 ) ;
#25 = EDGE_LOOP ( 'NONE', ( #163 ) ) ;
#26 = DIRECTION ( 'NONE',  ( -3.491481338843133355E-15, 3.265724797726276534E-16, -1.000000000000000000 ) ) ;
#27 = FACE_BOUND ( 'NONE', #40, .T. ) ;
#28 = AXIS2_PLACEMENT_3D ( 'NONE', #93, #82, #104 ) ;
#29 = EDGE_LOOP ( 'NONE', ( #69 ) ) ;
#30 = CARTESIAN_POINT ( 'NONE',  ( -2.280443437811712378E-29, 2.132991690896866022E-30, -6.531449595452553068E-15 ) ) ;
#31 = CARTESIAN_POINT ( 'NONE',  ( 0.0000000000000000000, 5.000000000000000000, 0.0000000000000000000 ) ) ;
#32 =( LENGTH_UNIT ( ) NAMED_UNIT ( * ) SI_UNIT ( .MILLI., .METRE. ) );
#33 = APPROVAL_STATUS ( 'not_yet_approved' ) ;
#34 = CALENDAR_DATE ( 2021, 6, 12 ) ;
#35 = APPROVAL ( #33, 'UNSPECIFIED' ) ;
#36 = ADVANCED_BREP_SHAPE_REPRESENTATION ( '677', ( #58, #61 ), #158 ) ;
#37 = VERTEX_POINT ( 'NONE', #164 ) ;
#38 = CIRCLE ( 'NONE', #134, 20.00000000000000000 ) ;
#39 = PERSON_AND_ORGANIZATION_ROLE ( 'classification_officer' ) ;
#40 = EDGE_LOOP ( 'NONE', ( #3 ) ) ;
#41 = CC_DESIGN_PERSON_AND_ORGANIZATION_ASSIGNMENT ( #145, #147, ( #76 ) ) ;
#42 = FACE_OUTER_BOUND ( 'NONE', #85, .T. ) ;
#43 = DIRECTION ( 'NONE',  ( -3.491481338843133355E-15, 3.265724797726276534E-16, -1.000000000000000000 ) ) ;
#44 = UNCERTAINTY_MEASURE_WITH_UNIT (LENGTH_MEASURE( 1.000000000000000082E-05 ), #32, 'distance_accuracy_value', 'NONE');
#45 = CC_DESIGN_APPROVAL ( #150, ( #74 ) ) ;
#46 = FACE_OUTER_BOUND ( 'NONE', #29, .T. ) ;
#47 = DIRECTION ( 'NONE',  ( 0.0000000000000000000, 0.0000000000000000000, 1.000000000000000000 ) ) ;
#48 = DIRECTION ( 'NONE',  ( 1.000000000000000000, 0.0000000000000000000, 0.0000000000000000000 ) ) ;
#49 = DIRECTION ( 'NONE',  ( -3.491481338843133355E-15, 3.265724797726276534E-16, -1.000000000000000000 ) ) ;
#50 = PERSON_AND_ORGANIZATION ( #63, #126 ) ;
#51 = APPROVAL_DATE_TIME ( #130, #150 ) ;
#52 = APPROVAL_PERSON_ORGANIZATION ( #99, #35, #19 ) ;
#53 = DIRECTION ( 'NONE',  ( -3.491481338843133355E-15, 3.265724797726276534E-16, -1.000000000000000000 ) ) ;
#54 = APPROVAL ( #166, 'UNSPECIFIED' ) ;
#55 = CARTESIAN_POINT ( 'NONE',  ( -5.701108594529280945E-30, 5.332479227242165054E-31, -1.632862398863138267E-15 ) ) ;
#56 = ORIENTED_EDGE ( 'NONE', *, *, #11, .T. ) ;
#57 = PERSON_AND_ORGANIZATION_ROLE ( 'creator' ) ;
#58 = MANIFOLD_SOLID_BREP ( 'Corps-Déplacer/Copier1', #81 ) ;
#59 = VERTEX_POINT ( 'NONE', #31 ) ;
#60 = CALENDAR_DATE ( 2021, 6, 12 ) ;
#61 = AXIS2_PLACEMENT_3D ( 'NONE', #90, #47, #48 ) ;
#62 = COORDINATED_UNIVERSAL_TIME_OFFSET ( 1, 0, .AHEAD. ) ;
#63 = PERSON ( 'UNSPECIFIED', 'UNSPECIFIED', 'UNSPECIFIED', ('UNSPECIFIED'), ('UNSPECIFIED'), ('UNSPECIFIED') ) ;
#64 = COORDINATED_UNIVERSAL_TIME_OFFSET ( 1, 0, .AHEAD. ) ;
#65 = ORIENTED_EDGE ( 'NONE', *, *, #127, .F. ) ;
#66 = LOCAL_TIME ( 14, 0, 15.00000000000000000, #22 ) ;
#67 = EDGE_CURVE ( 'NONE', #59, #59, #131, .T. ) ;
#68 = DIRECTION ( 'NONE',  ( -1.140221718905856154E-30, -1.000000000000000000, -3.265724797726276534E-16 ) ) ;
#69 = ORIENTED_EDGE ( 'NONE', *, *, #110, .T. ) ;
#70 = PRODUCT_DEFINITION_SHAPE ( 'NONE', 'NONE',  #106 ) ;
#71 = CARTESIAN_POINT ( 'NONE',  ( 2.094888803305873702E-15, -1.959434878635760053E-16, 0.5999999999999982014 ) ) ;
#72 = AXIS2_PLACEMENT_3D ( 'NONE', #151, #26, #156 ) ;
#73 = FACE_BOUND ( 'NONE', #14, .T. ) ;
#74 = SECURITY_CLASSIFICATION ( '', '', #80 ) ;
#75 = CALENDAR_DATE ( 2021, 6, 12 ) ;
#76 = PRODUCT_DEFINITION_FORMATION_WITH_SPECIFIED_SOURCE ( 'ANY', '', #94, .NOT_KNOWN. ) ;
#77 = PERSON_AND_ORGANIZATION ( #63, #126 ) ;
#78 = APPROVAL_STATUS ( 'not_yet_approved' ) ;
#79 = LOCAL_TIME ( 14, 0, 15.00000000000000000, #62 ) ;
#80 = SECURITY_CLASSIFICATION_LEVEL ( 'unclassified' ) ;
#81 = CLOSED_SHELL ( 'NONE', ( #146, #135, #1, #84 ) ) ;
#82 = DIRECTION ( 'NONE',  ( -3.491481338843133355E-15, 3.265724797726276534E-16, -1.000000000000000000 ) ) ;
#83 = CYLINDRICAL_SURFACE ( 'NONE', #28, 5.000000000000000888 ) ;
#84 = ADVANCED_FACE ( 'NONE', ( #5, #138 ), #83, .F. ) ;
#85 = EDGE_LOOP ( 'NONE', ( #56 ) ) ;
#86 = EDGE_LOOP ( 'NONE', ( #152 ) ) ;
#87 = DIRECTION ( 'NONE',  ( -3.491481338843133355E-15, 3.265724797726276534E-16, -1.000000000000000000 ) ) ;
#88 = APPLICATION_PROTOCOL_DEFINITION ( 'international standard', 'config_control_design', 1994, #137 ) ;
#89 = CC_DESIGN_DATE_AND_TIME_ASSIGNMENT ( #100, #144, ( #106 ) ) ;
#90 = CARTESIAN_POINT ( 'NONE',  ( 0.0000000000000000000, 0.0000000000000000000, 0.0000000000000000000 ) ) ;
#91 = PERSON_AND_ORGANIZATION ( #63, #126 ) ;
#92 = VERTEX_POINT ( 'NONE', #141 ) ;
#93 = CARTESIAN_POINT ( 'NONE',  ( 0.0000000000000000000, 0.0000000000000000000, 0.0000000000000000000 ) ) ;
#94 = PRODUCT ( '677', '677', '', ( #98 ) ) ;
#95 = DIRECTION ( 'NONE',  ( -3.491481338843133355E-15, 3.265724797726276534E-16, -1.000000000000000000 ) ) ;
#96 = ORIENTED_EDGE ( 'NONE', *, *, #67, .F. ) ;
#97 =( NAMED_UNIT ( * ) SI_UNIT ( $, .STERADIAN. ) SOLID_ANGLE_UNIT ( ) );
#98 = MECHANICAL_CONTEXT ( 'NONE', #137, 'mechanical' ) ;
#99 = PERSON_AND_ORGANIZATION ( #63, #126 ) ;
#100 = DATE_AND_TIME ( #60, #119 ) ;
#101 = PERSON_AND_ORGANIZATION ( #63, #126 ) ;
#102 = CALENDAR_DATE ( 2021, 6, 12 ) ;
#103 = FACE_OUTER_BOUND ( 'NONE', #154, .T. ) ;
#104 = DIRECTION ( 'NONE',  ( 1.140221718905856154E-30, 1.000000000000000000, 3.265724797726276534E-16 ) ) ;
#105 = PLANE ( 'NONE',  #107 ) ;
#106 = PRODUCT_DEFINITION ( 'UNKNOWN', '', #76, #23 ) ;
#107 = AXIS2_PLACEMENT_3D ( 'NONE', #133, #120, #68 ) ;
#108 = DIRECTION ( 'NONE',  ( 1.140221718905856154E-30, 1.000000000000000000, 3.265724797726276534E-16 ) ) ;
#109 = VERTEX_POINT ( 'NONE', #155 ) ;
#110 = EDGE_CURVE ( 'NONE', #92, #92, #24, .T. ) ;
#111 = COORDINATED_UNIVERSAL_TIME_OFFSET ( 1, 0, .AHEAD. ) ;
#112 = PLANE ( 'NONE',  #169 ) ;
#113 = DATE_AND_TIME ( #102, #66 ) ;
#114 = DATE_TIME_ROLE ( 'classification_date' ) ;
#115 = CC_DESIGN_SECURITY_CLASSIFICATION ( #74, ( #76 ) ) ;
#116 = APPROVAL_ROLE ( '' ) ;
#117 = CC_DESIGN_APPROVAL ( #54, ( #76 ) ) ;
#118 = LOCAL_TIME ( 14, 0, 15.00000000000000000, #111 ) ;
#119 = LOCAL_TIME ( 14, 0, 15.00000000000000000, #20 ) ;
#120 = DIRECTION ( 'NONE',  ( 3.491481338843133355E-15, -3.265724797726276534E-16, 1.000000000000000000 ) ) ;
#121 = DIRECTION ( 'NONE',  ( 1.140221718905856154E-30, 1.000000000000000000, 3.265724797726276534E-16 ) ) ;
#122 = APPROVAL_DATE_TIME ( #167, #54 ) ;
#123 = AXIS2_PLACEMENT_3D ( 'NONE', #30, #87, #16 ) ;
#124 = PERSON_AND_ORGANIZATION_ROLE ( 'design_owner' ) ;
#125 = DATE_AND_TIME ( #75, #118 ) ;
#126 = ORGANIZATION ( 'UNSPECIFIED', 'UNSPECIFIED', '' ) ;
#127 = EDGE_CURVE ( 'NONE', #37, #37, #140, .T. ) ;
#128 = CC_DESIGN_PERSON_AND_ORGANIZATION_ASSIGNMENT ( #50, #57, ( #76 ) ) ;
#129 = AXIS2_PLACEMENT_3D ( 'NONE', #71, #53, #162 ) ;
#130 = DATE_AND_TIME ( #168, #12 ) ;
#131 = CIRCLE ( 'NONE', #7, 5.000000000000000000 ) ;
#132 = ORIENTED_EDGE ( 'NONE', *, *, #110, .F. ) ;
#133 = CARTESIAN_POINT ( 'NONE',  ( 2.094888803305870941E-15, 5.000000000000000888, 0.5999999999999973133 ) ) ;
#134 = AXIS2_PLACEMENT_3D ( 'NONE', #15, #43, #136 ) ;
#135 = ADVANCED_FACE ( 'NONE', ( #42, #103 ), #161, .T. ) ;
#136 = DIRECTION ( 'NONE',  ( 1.136298667188469153E-30, 1.000000000000000000, 3.252606517456513302E-16 ) ) ;
#137 = APPLICATION_CONTEXT ( 'configuration controlled 3d designs of mechanical parts and assemblies' ) ;
#138 = FACE_OUTER_BOUND ( 'NONE', #13, .T. ) ;
#139 =( NAMED_UNIT ( * ) PLANE_ANGLE_UNIT ( ) SI_UNIT ( $, .RADIAN. ) );
#140 = CIRCLE ( 'NONE', #129, 5.000000000000000888 ) ;
#141 = CARTESIAN_POINT ( 'NONE',  ( 0.0000000000000000000, 20.00000000000000000, 0.0000000000000000000 ) ) ;
#142 = CC_DESIGN_PERSON_AND_ORGANIZATION_ASSIGNMENT ( #17, #124, ( #94 ) ) ;
#143 = CC_DESIGN_DATE_AND_TIME_ASSIGNMENT ( #113, #114, ( #74 ) ) ;
#144 = DATE_TIME_ROLE ( 'creation_date' ) ;
#145 = PERSON_AND_ORGANIZATION ( #63, #126 ) ;
#146 = ADVANCED_FACE ( 'NONE', ( #46, #73 ), #112, .T. ) ;
#147 = PERSON_AND_ORGANIZATION_ROLE ( 'design_supplier' ) ;
#148 = APPROVAL_PERSON_ORGANIZATION ( #77, #150, #116 ) ;
#149 = SHAPE_DEFINITION_REPRESENTATION ( #70, #36 ) ;
#150 = APPROVAL ( #78, 'UNSPECIFIED' ) ;
#151 = CARTESIAN_POINT ( 'NONE',  ( 0.0000000000000000000, 0.0000000000000000000, 0.0000000000000000000 ) ) ;
#152 = ORIENTED_EDGE ( 'NONE', *, *, #67, .T. ) ;
#153 = CC_DESIGN_APPROVAL ( #35, ( #106 ) ) ;
#154 = EDGE_LOOP ( 'NONE', ( #132 ) ) ;
#155 = CARTESIAN_POINT ( 'NONE',  ( 2.094888803305879224E-15, 20.00000000000000000, 0.5999999999999998668 ) ) ;
#156 = DIRECTION ( 'NONE',  ( 1.140221718905856154E-30, 1.000000000000000000, 3.265724797726276534E-16 ) ) ;
#157 = PRODUCT_RELATED_PRODUCT_CATEGORY ( 'detail', '', ( #94 ) ) ;
#158 =( GEOMETRIC_REPRESENTATION_CONTEXT ( 3 ) GLOBAL_UNCERTAINTY_ASSIGNED_CONTEXT ( ( #44 ) ) GLOBAL_UNIT_ASSIGNED_CONTEXT ( ( #32, #139, #97 ) ) REPRESENTATION_CONTEXT ( 'NONE', 'WORKASPACE' ) );
#159 = APPROVAL_ROLE ( '' ) ;
#160 = CARTESIAN_POINT ( 'NONE',  ( -8.551662891793920716E-30, 5.000000000000000000, -2.449293598294707696E-15 ) ) ;
#161 = CYLINDRICAL_SURFACE ( 'NONE', #72, 20.00000000000000000 ) ;
#162 = DIRECTION ( 'NONE',  ( 1.155557966632341337E-30, 1.000000000000000000, 3.252606517456512809E-16 ) ) ;
#163 = ORIENTED_EDGE ( 'NONE', *, *, #11, .F. ) ;
#164 = CARTESIAN_POINT ( 'NONE',  ( 2.094888803305879224E-15, 5.000000000000000888, 0.5999999999999998668 ) ) ;
#165 = APPLICATION_PROTOCOL_DEFINITION ( 'international standard', 'config_control_design', 1994, #18 ) ;
#166 = APPROVAL_STATUS ( 'not_yet_approved' ) ;
#167 = DATE_AND_TIME ( #34, #79 ) ;
#168 = CALENDAR_DATE ( 2021, 6, 12 ) ;
#169 = AXIS2_PLACEMENT_3D ( 'NONE', #160, #49, #108 ) ;
ENDSEC;
END-ISO-10303-21;
