ISO-10303-21;
HEADER;
FILE_DESCRIPTION (( 'STEP AP203' ),
    '1' );
FILE_NAME ('676.step',
    '2021-12-06T13:00:14',
    ( '' ),
    ( '' ),
    'SwSTEP 2.0',
    'SolidWorks 2019',
    '' );
FILE_SCHEMA (( 'CONFIG_CONTROL_DESIGN' ));
ENDSEC;

DATA;
#1 = PRODUCT ( '676', '676', '', ( #23 ) ) ;
#2 = DIRECTION ( 'NONE',  ( -3.491481338843133355E-15, 1.224646799147353207E-16, -1.000000000000000000 ) ) ;
#3 = CC_DESIGN_DATE_AND_TIME_ASSIGNMENT ( #11, #111, ( #138 ) ) ;
#4 = DIRECTION ( 'NONE',  ( 4.275831445896958607E-31, 1.000000000000000000, 1.224646799147353207E-16 ) ) ;
#5 = APPROVAL_ROLE ( '' ) ;
#6 = DESIGN_CONTEXT ( 'detailed design', #32, 'design' ) ;
#7 = CALENDAR_DATE ( 2021, 6, 12 ) ;
#8 = APPROVAL_PERSON_ORGANIZATION ( #156, #100, #5 ) ;
#9 = DATE_AND_TIME ( #86, #35 ) ;
#10 = EDGE_LOOP ( 'NONE', ( #13 ) ) ;
#11 = DATE_AND_TIME ( #69, #103 ) ;
#12 = PRODUCT_RELATED_PRODUCT_CATEGORY ( 'detail', '', ( #1 ) ) ;
#13 = ORIENTED_EDGE ( 'NONE', *, *, #75, .F. ) ;
#14 = AXIS2_PLACEMENT_3D ( 'NONE', #15, #2, #92 ) ;
#15 = CARTESIAN_POINT ( 'NONE',  ( 0.0000000000000000000, 0.0000000000000000000, 0.0000000000000000000 ) ) ;
#16 = DIRECTION ( 'NONE',  ( -4.275831445896958607E-31, -1.000000000000000000, -1.224646799147353207E-16 ) ) ;
#17 = ORIENTED_EDGE ( 'NONE', *, *, #113, .F. ) ;
#18 = FACE_OUTER_BOUND ( 'NONE', #148, .T. ) ;
#19 = APPLICATION_PROTOCOL_DEFINITION ( 'international standard', 'config_control_design', 1994, #32 ) ;
#20 = PERSON_AND_ORGANIZATION_ROLE ( 'classification_officer' ) ;
#21 = DIRECTION ( 'NONE',  ( 0.0000000000000000000, 0.0000000000000000000, 1.000000000000000000 ) ) ;
#22 = CALENDAR_DATE ( 2021, 6, 12 ) ;
#23 = MECHANICAL_CONTEXT ( 'NONE', #48, 'mechanical' ) ;
#24 = ORIENTED_EDGE ( 'NONE', *, *, #88, .F. ) ;
#25 = LOCAL_TIME ( 14, 0, 14.00000000000000000, #73 ) ;
#26 = ADVANCED_FACE ( 'NONE', ( #79, #105 ), #93, .F. ) ;
#27 = CARTESIAN_POINT ( 'NONE',  ( 6.842277657836020854E-46, 8.000000000000000000, 0.0000000000000000000 ) ) ;
#28 = FACE_BOUND ( 'NONE', #30, .T. ) ;
#29 =( GEOMETRIC_REPRESENTATION_CONTEXT ( 3 ) GLOBAL_UNCERTAINTY_ASSIGNED_CONTEXT ( ( #107 ) ) GLOBAL_UNIT_ASSIGNED_CONTEXT ( ( #164, #53, #43 ) ) REPRESENTATION_CONTEXT ( 'NONE', 'WORKASPACE' ) );
#30 = EDGE_LOOP ( 'NONE', ( #17 ) ) ;
#31 = DIRECTION ( 'NONE',  ( -3.491481338843133355E-15, 1.224646799147353207E-16, -1.000000000000000000 ) ) ;
#32 = APPLICATION_CONTEXT ( 'configuration controlled 3d designs of mechanical parts and assemblies' ) ;
#33 = PERSON_AND_ORGANIZATION ( #98, #124 ) ;
#34 = DATE_AND_TIME ( #7, #115 ) ;
#35 = LOCAL_TIME ( 14, 0, 14.00000000000000000, #36 ) ;
#36 = COORDINATED_UNIVERSAL_TIME_OFFSET ( 1, 0, .AHEAD. ) ;
#37 = APPROVAL_ROLE ( '' ) ;
#38 = ADVANCED_FACE ( 'NONE', ( #116, #28 ), #169, .T. ) ;
#39 = AXIS2_PLACEMENT_3D ( 'NONE', #78, #31, #42 ) ;
#40 = ADVANCED_BREP_SHAPE_REPRESENTATION ( '676', ( #114, #70 ), #29 ) ;
#41 = VERTEX_POINT ( 'NONE', #27 ) ;
#42 = DIRECTION ( 'NONE',  ( 4.275831445896958607E-31, 1.000000000000000000, 1.224646799147353207E-16 ) ) ;
#43 =( NAMED_UNIT ( * ) SI_UNIT ( $, .STERADIAN. ) SOLID_ANGLE_UNIT ( ) );
#44 = CIRCLE ( 'NONE', #149, 8.000000000000000000 ) ;
#45 = FACE_OUTER_BOUND ( 'NONE', #152, .T. ) ;
#46 = DATE_AND_TIME ( #22, #51 ) ;
#47 = DIRECTION ( 'NONE',  ( 1.000000000000000000, 0.0000000000000000000, 0.0000000000000000000 ) ) ;
#48 = APPLICATION_CONTEXT ( 'configuration controlled 3d designs of mechanical parts and assemblies' ) ;
#49 = PRODUCT_DEFINITION_SHAPE ( 'NONE', 'NONE',  #127 ) ;
#50 = DIRECTION ( 'NONE',  ( 3.851859888774471706E-31, 1.000000000000000000, 1.355252715606880543E-16 ) ) ;
#51 = LOCAL_TIME ( 14, 0, 14.00000000000000000, #74 ) ;
#52 = CARTESIAN_POINT ( 'NONE',  ( 5.586370142149013368E-15, 8.000000000000000000, 1.600000000000000089 ) ) ;
#53 =( NAMED_UNIT ( * ) PLANE_ANGLE_UNIT ( ) SI_UNIT ( $, .RADIAN. ) );
#54 = ORIENTED_EDGE ( 'NONE', *, *, #75, .T. ) ;
#55 = SHAPE_DEFINITION_REPRESENTATION ( #49, #40 ) ;
#56 = PERSON_AND_ORGANIZATION ( #98, #124 ) ;
#57 = CALENDAR_DATE ( 2021, 6, 12 ) ;
#58 = PERSON_AND_ORGANIZATION_ROLE ( 'design_supplier' ) ;
#59 = PERSON_AND_ORGANIZATION ( #98, #124 ) ;
#60 = PRODUCT_DEFINITION_FORMATION_WITH_SPECIFIED_SOURCE ( 'ANY', '', #1, .NOT_KNOWN. ) ;
#61 = ADVANCED_FACE ( 'NONE', ( #45, #121 ), #117, .T. ) ;
#62 = EDGE_LOOP ( 'NONE', ( #66 ) ) ;
#63 = ORIENTED_EDGE ( 'NONE', *, *, #122, .F. ) ;
#64 = CARTESIAN_POINT ( 'NONE',  ( 2.736911063134408342E-45, 31.50000000000000000, 0.0000000000000000000 ) ) ;
#65 = EDGE_LOOP ( 'NONE', ( #54 ) ) ;
#66 = ORIENTED_EDGE ( 'NONE', *, *, #88, .T. ) ;
#67 = CARTESIAN_POINT ( 'NONE',  ( -5.024101948928926757E-30, 8.000000000000000000, -1.438959988998140160E-15 ) ) ;
#68 = APPROVAL_STATUS ( 'not_yet_approved' ) ;
#69 = CALENDAR_DATE ( 2021, 6, 12 ) ;
#70 = AXIS2_PLACEMENT_3D ( 'NONE', #135, #21, #47 ) ;
#71 = AXIS2_PLACEMENT_3D ( 'NONE', #67, #132, #153 ) ;
#72 = CC_DESIGN_PERSON_AND_ORGANIZATION_ASSIGNMENT ( #136, #125, ( #60 ) ) ;
#73 = COORDINATED_UNIVERSAL_TIME_OFFSET ( 1, 0, .AHEAD. ) ;
#74 = COORDINATED_UNIVERSAL_TIME_OFFSET ( 1, 0, .AHEAD. ) ;
#75 = EDGE_CURVE ( 'NONE', #161, #161, #44, .T. ) ;
#76 = CARTESIAN_POINT ( 'NONE',  ( 5.586370142149013368E-15, 31.50000000000000000, 1.600000000000000089 ) ) ;
#77 = CARTESIAN_POINT ( 'NONE',  ( 5.586370142148999958E-15, -1.959434878635760300E-16, 1.599999999999996092 ) ) ;
#78 = CARTESIAN_POINT ( 'NONE',  ( -1.346886905457541760E-29, 4.724243315384851574E-31, -3.857637417314162689E-15 ) ) ;
#79 = FACE_OUTER_BOUND ( 'NONE', #165, .T. ) ;
#80 = DIRECTION ( 'NONE',  ( -3.491481338843133355E-15, 1.224646799147353207E-16, -1.000000000000000000 ) ) ;
#81 = APPROVAL_DATE_TIME ( #106, #131 ) ;
#82 = AXIS2_PLACEMENT_3D ( 'NONE', #90, #133, #151 ) ;
#83 = CC_DESIGN_PERSON_AND_ORGANIZATION_ASSIGNMENT ( #56, #157, ( #1 ) ) ;
#84 = DATE_TIME_ROLE ( 'creation_date' ) ;
#85 = APPROVAL_ROLE ( '' ) ;
#86 = CALENDAR_DATE ( 2021, 6, 12 ) ;
#87 = CIRCLE ( 'NONE', #140, 31.50000000000000000 ) ;
#88 = EDGE_CURVE ( 'NONE', #129, #129, #145, .T. ) ;
#89 = DIRECTION ( 'NONE',  ( -3.491481338843133355E-15, 1.224646799147353207E-16, -1.000000000000000000 ) ) ;
#90 = CARTESIAN_POINT ( 'NONE',  ( -3.420665156717566185E-30, 1.199807826129486086E-31, -9.797174393178825657E-16 ) ) ;
#91 = CC_DESIGN_APPROVAL ( #131, ( #127 ) ) ;
#92 = DIRECTION ( 'NONE',  ( 4.275831445896958607E-31, 1.000000000000000000, 1.224646799147353207E-16 ) ) ;
#93 = CYLINDRICAL_SURFACE ( 'NONE', #14, 8.000000000000000000 ) ;
#94 = CC_DESIGN_SECURITY_CLASSIFICATION ( #138, ( #60 ) ) ;
#95 = PERSON_AND_ORGANIZATION ( #98, #124 ) ;
#96 = PERSON_AND_ORGANIZATION ( #98, #124 ) ;
#97 = APPLICATION_PROTOCOL_DEFINITION ( 'international standard', 'config_control_design', 1994, #48 ) ;
#98 = PERSON ( 'UNSPECIFIED', 'UNSPECIFIED', 'UNSPECIFIED', ('UNSPECIFIED'), ('UNSPECIFIED'), ('UNSPECIFIED') ) ;
#99 = CLOSED_SHELL ( 'NONE', ( #38, #61, #168, #26 ) ) ;
#100 = APPROVAL ( #68, 'UNSPECIFIED' ) ;
#101 = CARTESIAN_POINT ( 'NONE',  ( 5.586370142149008635E-15, 8.000000000000000000, 1.599999999999998535 ) ) ;
#102 = VERTEX_POINT ( 'NONE', #76 ) ;
#103 = LOCAL_TIME ( 14, 0, 14.00000000000000000, #159 ) ;
#104 = DIRECTION ( 'NONE',  ( 3.491481338843133355E-15, -1.224646799147353207E-16, 1.000000000000000000 ) ) ;
#105 = FACE_OUTER_BOUND ( 'NONE', #10, .T. ) ;
#106 = DATE_AND_TIME ( #57, #25 ) ;
#107 = UNCERTAINTY_MEASURE_WITH_UNIT (LENGTH_MEASURE( 1.000000000000000082E-05 ), #164, 'distance_accuracy_value', 'NONE');
#108 = CC_DESIGN_DATE_AND_TIME_ASSIGNMENT ( #46, #84, ( #127 ) ) ;
#109 = PERSON_AND_ORGANIZATION_ROLE ( 'creator' ) ;
#110 = EDGE_LOOP ( 'NONE', ( #24 ) ) ;
#111 = DATE_TIME_ROLE ( 'classification_date' ) ;
#112 = CC_DESIGN_APPROVAL ( #100, ( #60 ) ) ;
#113 = EDGE_CURVE ( 'NONE', #41, #41, #128, .T. ) ;
#114 = MANIFOLD_SOLID_BREP ( 'Corps-Déplacer/Copier1', #99 ) ;
#115 = LOCAL_TIME ( 14, 0, 14.00000000000000000, #126 ) ;
#116 = FACE_OUTER_BOUND ( 'NONE', #62, .T. ) ;
#117 = CYLINDRICAL_SURFACE ( 'NONE', #158, 31.50000000000000000 ) ;
#118 = ORIENTED_EDGE ( 'NONE', *, *, #122, .T. ) ;
#119 = APPROVAL_PERSON_ORGANIZATION ( #33, #131, #85 ) ;
#120 = CARTESIAN_POINT ( 'NONE',  ( 0.0000000000000000000, 0.0000000000000000000, 0.0000000000000000000 ) ) ;
#121 = FACE_OUTER_BOUND ( 'NONE', #110, .T. ) ;
#122 = EDGE_CURVE ( 'NONE', #102, #102, #87, .T. ) ;
#123 = APPROVAL_STATUS ( 'not_yet_approved' ) ;
#124 = ORGANIZATION ( 'UNSPECIFIED', 'UNSPECIFIED', '' ) ;
#125 = PERSON_AND_ORGANIZATION_ROLE ( 'creator' ) ;
#126 = COORDINATED_UNIVERSAL_TIME_OFFSET ( 1, 0, .AHEAD. ) ;
#127 = PRODUCT_DEFINITION ( 'UNKNOWN', '', #60, #6 ) ;
#128 = CIRCLE ( 'NONE', #82, 8.000000000000000000 ) ;
#129 = VERTEX_POINT ( 'NONE', #64 ) ;
#130 = FACE_BOUND ( 'NONE', #65, .T. ) ;
#131 = APPROVAL ( #167, 'UNSPECIFIED' ) ;
#132 = DIRECTION ( 'NONE',  ( -3.491481338843133355E-15, 1.224646799147353207E-16, -1.000000000000000000 ) ) ;
#133 = DIRECTION ( 'NONE',  ( -3.491481338843133355E-15, 1.224646799147353207E-16, -1.000000000000000000 ) ) ;
#134 = DIRECTION ( 'NONE',  ( 4.157563054550223109E-31, 1.000000000000000000, 1.239088197126290817E-16 ) ) ;
#135 = CARTESIAN_POINT ( 'NONE',  ( 0.0000000000000000000, 0.0000000000000000000, 0.0000000000000000000 ) ) ;
#136 = PERSON_AND_ORGANIZATION ( #98, #124 ) ;
#137 = PERSON_AND_ORGANIZATION ( #98, #124 ) ;
#138 = SECURITY_CLASSIFICATION ( '', '', #141 ) ;
#139 = CC_DESIGN_PERSON_AND_ORGANIZATION_ASSIGNMENT ( #137, #58, ( #60 ) ) ;
#140 = AXIS2_PLACEMENT_3D ( 'NONE', #77, #80, #134 ) ;
#141 = SECURITY_CLASSIFICATION_LEVEL ( 'unclassified' ) ;
#142 = APPROVAL_DATE_TIME ( #9, #147 ) ;
#143 = CC_DESIGN_PERSON_AND_ORGANIZATION_ASSIGNMENT ( #95, #109, ( #127 ) ) ;
#144 = CC_DESIGN_APPROVAL ( #147, ( #138 ) ) ;
#145 = CIRCLE ( 'NONE', #39, 31.50000000000000000 ) ;
#146 = ORIENTED_EDGE ( 'NONE', *, *, #113, .T. ) ;
#147 = APPROVAL ( #123, 'UNSPECIFIED' ) ;
#148 = EDGE_LOOP ( 'NONE', ( #63 ) ) ;
#149 = AXIS2_PLACEMENT_3D ( 'NONE', #162, #89, #50 ) ;
#150 = PLANE ( 'NONE',  #166 ) ;
#151 = DIRECTION ( 'NONE',  ( 4.275831445896958607E-31, 1.000000000000000000, 1.224646799147353207E-16 ) ) ;
#152 = EDGE_LOOP ( 'NONE', ( #118 ) ) ;
#153 = DIRECTION ( 'NONE',  ( 4.275831445896958607E-31, 1.000000000000000000, 1.224646799147353207E-16 ) ) ;
#154 = DIRECTION ( 'NONE',  ( -3.491481338843133355E-15, 1.224646799147353207E-16, -1.000000000000000000 ) ) ;
#155 = APPROVAL_DATE_TIME ( #34, #100 ) ;
#156 = PERSON_AND_ORGANIZATION ( #98, #124 ) ;
#157 = PERSON_AND_ORGANIZATION_ROLE ( 'design_owner' ) ;
#158 = AXIS2_PLACEMENT_3D ( 'NONE', #120, #154, #4 ) ;
#159 = COORDINATED_UNIVERSAL_TIME_OFFSET ( 1, 0, .AHEAD. ) ;
#160 = CC_DESIGN_PERSON_AND_ORGANIZATION_ASSIGNMENT ( #96, #20, ( #138 ) ) ;
#161 = VERTEX_POINT ( 'NONE', #52 ) ;
#162 = CARTESIAN_POINT ( 'NONE',  ( 5.586370142149010213E-15, -1.959434878635763751E-16, 1.599999999999998979 ) ) ;
#163 = APPROVAL_PERSON_ORGANIZATION ( #59, #147, #37 ) ;
#164 =( LENGTH_UNIT ( ) NAMED_UNIT ( * ) SI_UNIT ( .MILLI., .METRE. ) );
#165 = EDGE_LOOP ( 'NONE', ( #146 ) ) ;
#166 = AXIS2_PLACEMENT_3D ( 'NONE', #101, #104, #16 ) ;
#167 = APPROVAL_STATUS ( 'not_yet_approved' ) ;
#168 = ADVANCED_FACE ( 'NONE', ( #130, #18 ), #150, .T. ) ;
#169 = PLANE ( 'NONE',  #71 ) ;
ENDSEC;
END-ISO-10303-21;
