ISO-10303-21;
HEADER;
FILE_DESCRIPTION (( 'STEP AP203' ),
    '1' );
FILE_NAME ('67541.step',
    '2024-07-12T09:23:04',
    ( '' ),
    ( '' ),
    'SwSTEP 2.0',
    'SolidWorks 2022',
    '' );
FILE_SCHEMA (( 'CONFIG_CONTROL_DESIGN' ));
ENDSEC;

DATA;
#1 = CALENDAR_DATE ( 2024, 12, 7 ) ;
#2 = CARTESIAN_POINT ( 'NONE',  ( 3.491481338843133355E-14, -1.224646799147353256E-15, 10.00000000000000000 ) ) ;
#3 = COORDINATED_UNIVERSAL_TIME_OFFSET ( 1, 0, .AHEAD. ) ;
#4 = CALENDAR_DATE ( 2024, 12, 7 ) ;
#5 = PRODUCT_DEFINITION_SHAPE ( 'NONE', 'NONE',  #49 ) ;
#6 = ADVANCED_FACE ( 'NONE', ( #89, #143 ), #219, .T. ) ;
#7 = DIRECTION ( 'NONE',  ( -3.491481338843133355E-15, 1.224646799147353207E-16, -1.000000000000000000 ) ) ;
#8 = AXIS2_PLACEMENT_3D ( 'NONE', #178, #33, #118 ) ;
#9 = CONICAL_SURFACE ( 'NONE', #190, 1.800000000000000044, 0.7853981633974428389 ) ;
#10 = CARTESIAN_POINT ( 'NONE',  ( 2.269462870248036681E-14, 1.799999999999999156, 6.500000000000000000 ) ) ;
#11 = CARTESIAN_POINT ( 'NONE',  ( 1.710569414459005214E-46, 2.000000000000000000, 0.000000000000000000 ) ) ;
#12 = DIRECTION ( 'NONE',  ( -4.275831445896958607E-31, -1.000000000000000000, -1.224646799147353207E-16 ) ) ;
#13 = APPLICATION_CONTEXT ( 'configuration controlled 3d designs of mechanical parts and assemblies' ) ;
#14 = EDGE_CURVE ( 'NONE', #130, #130, #158, .T. ) ;
#15 =( LENGTH_UNIT ( ) NAMED_UNIT ( * ) SI_UNIT ( .MILLI., .METRE. ) );
#16 = DATE_AND_TIME ( #229, #133 ) ;
#17 = FACE_OUTER_BOUND ( 'NONE', #104, .T. ) ;
#18 = SECURITY_CLASSIFICATION_LEVEL ( 'unclassified' ) ;
#19 = CIRCLE ( 'NONE', #237, 1.800000000000000044 ) ;
#20 = ADVANCED_FACE ( 'NONE', ( #142, #98 ), #216, .T. ) ;
#21 = PERSON_AND_ORGANIZATION_ROLE ( 'design_owner' ) ;
#22 = CYLINDRICAL_SURFACE ( 'NONE', #99, 2.999999999999998224 ) ;
#23 = DIRECTION ( 'NONE',  ( 0.000000000000000000, 1.000000000000000000, 0.000000000000000000 ) ) ;
#24 = EDGE_LOOP ( 'NONE', ( #110 ) ) ;
#25 = DIRECTION ( 'NONE',  ( -3.491481338843133355E-15, 1.224646799147353207E-16, -1.000000000000000000 ) ) ;
#26 = AXIS2_PLACEMENT_3D ( 'NONE', #52, #27, #152 ) ;
#27 = DIRECTION ( 'NONE',  ( -3.491481338843133355E-15, 1.224646799147353207E-16, -1.000000000000000000 ) ) ;
#28 = CC_DESIGN_APPROVAL ( #107, ( #49 ) ) ;
#29 = DIRECTION ( 'NONE',  ( -3.491481338843133355E-15, 1.224646799147353207E-16, -1.000000000000000000 ) ) ;
#30 = EDGE_LOOP ( 'NONE', ( #234 ) ) ;
#31 = FACE_BOUND ( 'NONE', #150, .T. ) ;
#32 = ORIENTED_EDGE ( 'NONE', *, *, #230, .F. ) ;
#33 = DIRECTION ( 'NONE',  ( -3.491481338843133355E-15, 1.224646799147353207E-16, -1.000000000000000000 ) ) ;
#34 = APPROVAL_STATUS ( 'not_yet_approved' ) ;
#35 = DIRECTION ( 'NONE',  ( 3.491481338843133355E-15, -1.224646799147353207E-16, 1.000000000000000000 ) ) ;
#36 = PERSON_AND_ORGANIZATION ( #179, #206 ) ;
#37 = APPROVAL ( #97, 'UNSPECIFIED' ) ;
#38 = PERSON_AND_ORGANIZATION ( #179, #206 ) ;
#39 = ADVANCED_FACE ( 'NONE', ( #134, #31 ), #44, .T. ) ;
#40 = AXIS2_PLACEMENT_3D ( 'NONE', #92, #72, #154 ) ;
#41 = FACE_OUTER_BOUND ( 'NONE', #148, .T. ) ;
#42 = AXIS2_PLACEMENT_3D ( 'NONE', #172, #127, #137 ) ;
#43 = SECURITY_CLASSIFICATION ( '', '', #18 ) ;
#44 = CONICAL_SURFACE ( 'NONE', #195, 2.500000000000000888, 0.7853981633974479459 ) ;
#45 = ORIENTED_EDGE ( 'NONE', *, *, #225, .F. ) ;
#46 = CC_DESIGN_PERSON_AND_ORGANIZATION_ASSIGNMENT ( #181, #57, ( #43 ) ) ;
#47 = EDGE_LOOP ( 'NONE', ( #159 ) ) ;
#48 = DIRECTION ( 'NONE',  ( -3.491481338843133355E-15, 1.224646799147353207E-16, -1.000000000000000000 ) ) ;
#49 = PRODUCT_DEFINITION ( 'UNKNOWN', '', #213, #160 ) ;
#50 = CIRCLE ( 'NONE', #211, 3.000000000000000888 ) ;
#51 = ORIENTED_EDGE ( 'NONE', *, *, #63, .T. ) ;
#52 = CARTESIAN_POINT ( 'NONE',  ( 2.269462870248036681E-14, -7.960204194457795477E-16, 6.500000000000000000 ) ) ;
#53 = DIRECTION ( 'NONE',  ( 0.000000000000000000, -1.000000000000000000, 0.000000000000000000 ) ) ;
#54 = FACE_BOUND ( 'NONE', #209, .T. ) ;
#55 = APPROVAL_PERSON_ORGANIZATION ( #217, #106, #162 ) ;
#56 = APPROVAL_DATE_TIME ( #16, #107 ) ;
#57 = PERSON_AND_ORGANIZATION_ROLE ( 'classification_officer' ) ;
#58 = DIRECTION ( 'NONE',  ( 0.000000000000000000, 1.000000000000000000, 0.000000000000000000 ) ) ;
#59 = PERSON_AND_ORGANIZATION ( #179, #206 ) ;
#60 = APPROVAL_ROLE ( '' ) ;
#61 = FACE_OUTER_BOUND ( 'NONE', #200, .T. ) ;
#62 = COORDINATED_UNIVERSAL_TIME_OFFSET ( 1, 0, .AHEAD. ) ;
#63 = EDGE_CURVE ( 'NONE', #90, #90, #19, .T. ) ;
#64 = ORIENTED_EDGE ( 'NONE', *, *, #88, .T. ) ;
#65 = DIRECTION ( 'NONE',  ( -3.491481338843133355E-15, 1.224646799147353207E-16, -1.000000000000000000 ) ) ;
#66 = AXIS2_PLACEMENT_3D ( 'NONE', #218, #35, #12 ) ;
#67 = ORIENTED_EDGE ( 'NONE', *, *, #14, .F. ) ;
#68 = CC_DESIGN_APPROVAL ( #37, ( #43 ) ) ;
#69 = CARTESIAN_POINT ( 'NONE',  ( -8.551662891793915461E-31, 2.999519565323715216E-32, -2.449293598294706414E-16 ) ) ;
#70 = DIRECTION ( 'NONE',  ( 0.000000000000000000, 1.000000000000000000, 0.000000000000000000 ) ) ;
#71 = VERTEX_POINT ( 'NONE', #108 ) ;
#72 = DIRECTION ( 'NONE',  ( 3.491481338843133355E-15, -1.224646799147353207E-16, 1.000000000000000000 ) ) ;
#73 = DIRECTION ( 'NONE',  ( -3.491481338843133355E-15, 1.224646799147353207E-16, -1.000000000000000000 ) ) ;
#74 = AXIS2_PLACEMENT_3D ( 'NONE', #222, #65, #174 ) ;
#75 = COORDINATED_UNIVERSAL_TIME_OFFSET ( 1, 0, .AHEAD. ) ;
#76 = CARTESIAN_POINT ( 'NONE',  ( 1.745740669421566678E-13, -6.123233995736766085E-15, 50.00000000000000000 ) ) ;
#77 = DATE_AND_TIME ( #96, #149 ) ;
#78 = DATE_AND_TIME ( #1, #103 ) ;
#79 = DATE_TIME_ROLE ( 'classification_date' ) ;
#80 = APPLICATION_PROTOCOL_DEFINITION ( 'international standard', 'config_control_design', 1994, #13 ) ;
#81 = DATE_AND_TIME ( #4, #205 ) ;
#82 = ADVANCED_BREP_SHAPE_REPRESENTATION ( '67541', ( #208, #117, #85 ), #169 ) ;
#83 = EDGE_LOOP ( 'NONE', ( #125 ) ) ;
#84 = FACE_OUTER_BOUND ( 'NONE', #177, .T. ) ;
#85 = AXIS2_PLACEMENT_3D ( 'NONE', #123, #122, #145 ) ;
#86 = FACE_OUTER_BOUND ( 'NONE', #173, .T. ) ;
#87 = AXIS2_PLACEMENT_3D ( 'NONE', #221, #29, #115 ) ;
#88 = EDGE_CURVE ( 'NONE', #193, #193, #114, .T. ) ;
#89 = FACE_OUTER_BOUND ( 'NONE', #210, .T. ) ;
#90 = VERTEX_POINT ( 'NONE', #111 ) ;
#91 = VERTEX_POINT ( 'NONE', #175 ) ;
#92 = CARTESIAN_POINT ( 'NONE',  ( 2.269462870248036681E-14, 1.499759782661856239E-32, 6.500000000000000000 ) ) ;
#93 =( NAMED_UNIT ( * ) PLANE_ANGLE_UNIT ( ) SI_UNIT ( $, .RADIAN. ) );
#94 = DIRECTION ( 'NONE',  ( 3.491481338843133355E-15, -1.224646799147353207E-16, 1.000000000000000000 ) ) ;
#95 = VERTEX_POINT ( 'NONE', #215 ) ;
#96 = CALENDAR_DATE ( 2024, 12, 7 ) ;
#97 = APPROVAL_STATUS ( 'not_yet_approved' ) ;
#98 = FACE_OUTER_BOUND ( 'NONE', #83, .T. ) ;
#99 = AXIS2_PLACEMENT_3D ( 'NONE', #167, #7, #188 ) ;
#100 = PERSON_AND_ORGANIZATION_ROLE ( 'design_supplier' ) ;
#101 = PLANE ( 'NONE',  #87 ) ;
#102 = DATE_AND_TIME ( #232, #113 ) ;
#103 = LOCAL_TIME ( 11, 23, 4.000000000000000000, #62 ) ;
#104 = EDGE_LOOP ( 'NONE', ( #64 ) ) ;
#105 = PERSON_AND_ORGANIZATION ( #179, #206 ) ;
#106 = APPROVAL ( #34, 'UNSPECIFIED' ) ;
#107 = APPROVAL ( #161, 'UNSPECIFIED' ) ;
#108 = CARTESIAN_POINT ( 'NONE',  ( 2.269462870248036681E-14, 1.999999999999999112, 6.500000000000000000 ) ) ;
#109 = CIRCLE ( 'NONE', #243, 2.000000000000000000 ) ;
#110 = ORIENTED_EDGE ( 'NONE', *, *, #242, .F. ) ;
#111 = CARTESIAN_POINT ( 'NONE',  ( 3.491481338843133355E-14, 1.799999999999998712, 10.00000000000000000 ) ) ;
#112 = CC_DESIGN_DATE_AND_TIME_ASSIGNMENT ( #81, #79, ( #43 ) ) ;
#113 = LOCAL_TIME ( 11, 23, 4.000000000000000000, #3 ) ;
#114 = CIRCLE ( 'NONE', #185, 1.800000000000000044 ) ;
#115 = DIRECTION ( 'NONE',  ( 4.275831445896958607E-31, 1.000000000000000000, 1.224646799147353207E-16 ) ) ;
#116 = ADVANCED_FACE ( 'NONE', ( #140, #54 ), #9, .T. ) ;
#117 = MANIFOLD_SOLID_BREP ( 'Corps-Déplacer/Copier1[2]', #156 ) ;
#118 = DIRECTION ( 'NONE',  ( 4.275831445896958607E-31, 1.000000000000000000, 1.224646799147353207E-16 ) ) ;
#119 = APPROVAL_ROLE ( '' ) ;
#120 = DIRECTION ( 'NONE',  ( 0.000000000000000000, 1.000000000000000000, 0.000000000000000000 ) ) ;
#121 = APPROVAL_DATE_TIME ( #77, #106 ) ;
#122 = DIRECTION ( 'NONE',  ( 0.000000000000000000, 0.000000000000000000, 1.000000000000000000 ) ) ;
#123 = CARTESIAN_POINT ( 'NONE',  ( 0.000000000000000000, 0.000000000000000000, 0.000000000000000000 ) ) ;
#124 = APPROVAL_PERSON_ORGANIZATION ( #105, #107, #119 ) ;
#125 = ORIENTED_EDGE ( 'NONE', *, *, #204, .F. ) ;
#126 = DIRECTION ( 'NONE',  ( -3.491481338843133355E-15, 1.224646799147353207E-16, -1.000000000000000000 ) ) ;
#127 = DIRECTION ( 'NONE',  ( -3.491481338843133355E-15, 1.224646799147353207E-16, -1.000000000000000000 ) ) ;
#128 = EDGE_LOOP ( 'NONE', ( #198 ) ) ;
#129 = CIRCLE ( 'NONE', #180, 2.500000000000000888 ) ;
#130 = VERTEX_POINT ( 'NONE', #196 ) ;
#131 = DIRECTION ( 'NONE',  ( -3.491481338843133355E-15, 1.224646799147353207E-16, -1.000000000000000000 ) ) ;
#132 = CLOSED_SHELL ( 'NONE', ( #135, #6, #116, #187, #39, #155 ) ) ;
#133 = LOCAL_TIME ( 11, 23, 4.000000000000000000, #141 ) ;
#134 = FACE_OUTER_BOUND ( 'NONE', #24, .T. ) ;
#135 = ADVANCED_FACE ( 'NONE', ( #17 ), #212, .F. ) ;
#136 = APPLICATION_CONTEXT ( 'configuration controlled 3d designs of mechanical parts and assemblies' ) ;
#137 = DIRECTION ( 'NONE',  ( 4.275831445896958607E-31, 1.000000000000000000, 1.224646799147352961E-16 ) ) ;
#138 = PERSON_AND_ORGANIZATION_ROLE ( 'creator' ) ;
#139 = APPROVAL_DATE_TIME ( #78, #37 ) ;
#140 = FACE_OUTER_BOUND ( 'NONE', #30, .T. ) ;
#141 = COORDINATED_UNIVERSAL_TIME_OFFSET ( 1, 0, .AHEAD. ) ;
#142 = FACE_OUTER_BOUND ( 'NONE', #128, .T. ) ;
#143 = FACE_OUTER_BOUND ( 'NONE', #47, .T. ) ;
#144 = PERSON_AND_ORGANIZATION ( #179, #206 ) ;
#145 = DIRECTION ( 'NONE',  ( 1.000000000000000000, 0.000000000000000000, 0.000000000000000000 ) ) ;
#146 = CIRCLE ( 'NONE', #26, 2.000000000000000000 ) ;
#147 = CC_DESIGN_PERSON_AND_ORGANIZATION_ASSIGNMENT ( #144, #21, ( #165 ) ) ;
#148 = EDGE_LOOP ( 'NONE', ( #67 ) ) ;
#149 = LOCAL_TIME ( 11, 23, 4.000000000000000000, #75 ) ;
#150 = EDGE_LOOP ( 'NONE', ( #223 ) ) ;
#151 = DIRECTION ( 'NONE',  ( 4.275831445896958607E-31, 1.000000000000000000, 1.224646799147353207E-16 ) ) ;
#152 = DIRECTION ( 'NONE',  ( 0.000000000000000000, 1.000000000000000000, 0.000000000000000000 ) ) ;
#153 = CC_DESIGN_PERSON_AND_ORGANIZATION_ASSIGNMENT ( #182, #138, ( #49 ) ) ;
#154 = DIRECTION ( 'NONE',  ( -4.275831445896958607E-31, -1.000000000000000000, -1.224646799147353207E-16 ) ) ;
#155 = ADVANCED_FACE ( 'NONE', ( #61 ), #101, .F. ) ;
#156 = CLOSED_SHELL ( 'NONE', ( #191, #20, #166 ) ) ;
#157 =( NAMED_UNIT ( * ) SI_UNIT ( $, .STERADIAN. ) SOLID_ANGLE_UNIT ( ) );
#158 = CIRCLE ( 'NONE', #194, 2.999999999999995115 ) ;
#159 = ORIENTED_EDGE ( 'NONE', *, *, #88, .F. ) ;
#160 = DESIGN_CONTEXT ( 'detailed design', #136, 'design' ) ;
#161 = APPROVAL_STATUS ( 'not_yet_approved' ) ;
#162 = APPROVAL_ROLE ( '' ) ;
#163 = CC_DESIGN_APPROVAL ( #106, ( #213 ) ) ;
#164 = APPLICATION_PROTOCOL_DEFINITION ( 'international standard', 'config_control_design', 1994, #136 ) ;
#165 = PRODUCT ( '67541', '67541', '', ( #207 ) ) ;
#166 = ADVANCED_FACE ( 'NONE', ( #176 ), #197, .T. ) ;
#167 = CARTESIAN_POINT ( 'NONE',  ( 0.000000000000000000, 0.000000000000000000, 0.000000000000000000 ) ) ;
#168 = ORIENTED_EDGE ( 'NONE', *, *, #204, .T. ) ;
#169 =( GEOMETRIC_REPRESENTATION_CONTEXT ( 3 ) GLOBAL_UNCERTAINTY_ASSIGNED_CONTEXT ( ( #170 ) ) GLOBAL_UNIT_ASSIGNED_CONTEXT ( ( #15, #93, #157 ) ) REPRESENTATION_CONTEXT ( 'NONE', 'WORKASPACE' ) );
#170 = UNCERTAINTY_MEASURE_WITH_UNIT (LENGTH_MEASURE( 1.000000000000000082E-05 ), #15, 'distance_accuracy_value', 'NONE');
#171 = PLANE ( 'NONE',  #74 ) ;
#172 = CARTESIAN_POINT ( 'NONE',  ( 0.000000000000000000, 0.000000000000000000, 0.000000000000000000 ) ) ;
#173 = EDGE_LOOP ( 'NONE', ( #168 ) ) ;
#174 = DIRECTION ( 'NONE',  ( 4.275831445896958607E-31, 1.000000000000000000, 1.224646799147353207E-16 ) ) ;
#175 = CARTESIAN_POINT ( 'NONE',  ( 1.745740669421566678E-13, 2.499999999999994671, 50.00000000000000000 ) ) ;
#176 = FACE_OUTER_BOUND ( 'NONE', #238, .T. ) ;
#177 = EDGE_LOOP ( 'NONE', ( #224 ) ) ;
#178 = CARTESIAN_POINT ( 'NONE',  ( 0.000000000000000000, 0.000000000000000000, 0.000000000000000000 ) ) ;
#179 = PERSON ( 'UNSPECIFIED', 'UNSPECIFIED', 'UNSPECIFIED', ('UNSPECIFIED'), ('UNSPECIFIED'), ('UNSPECIFIED') ) ;
#180 = AXIS2_PLACEMENT_3D ( 'NONE', #226, #48, #23 ) ;
#181 = PERSON_AND_ORGANIZATION ( #179, #206 ) ;
#182 = PERSON_AND_ORGANIZATION ( #179, #206 ) ;
#183 = SHAPE_DEFINITION_REPRESENTATION ( #5, #82 ) ;
#184 = APPROVAL_PERSON_ORGANIZATION ( #38, #37, #60 ) ;
#185 = AXIS2_PLACEMENT_3D ( 'NONE', #199, #214, #58 ) ;
#186 = COORDINATED_UNIVERSAL_TIME_OFFSET ( 1, 0, .AHEAD. ) ;
#187 = ADVANCED_FACE ( 'NONE', ( #41, #84 ), #22, .T. ) ;
#188 = DIRECTION ( 'NONE',  ( 4.275831445896958607E-31, 1.000000000000000000, 1.224646799147353454E-16 ) ) ;
#189 = ORIENTED_EDGE ( 'NONE', *, *, #63, .F. ) ;
#190 = AXIS2_PLACEMENT_3D ( 'NONE', #241, #94, #53 ) ;
#191 = ADVANCED_FACE ( 'NONE', ( #86 ), #171, .T. ) ;
#192 = CARTESIAN_POINT ( 'NONE',  ( 1.728283262727351074E-13, -6.062001655779398511E-15, 49.50000000000000000 ) ) ;
#193 = VERTEX_POINT ( 'NONE', #10 ) ;
#194 = AXIS2_PLACEMENT_3D ( 'NONE', #228, #131, #120 ) ;
#195 = AXIS2_PLACEMENT_3D ( 'NONE', #76, #203, #233 ) ;
#196 = CARTESIAN_POINT ( 'NONE',  ( 3.910459099504312513E-14, 2.999999999999993783, 11.20000000000000817 ) ) ;
#197 = PLANE ( 'NONE',  #40 ) ;
#198 = ORIENTED_EDGE ( 'NONE', *, *, #230, .T. ) ;
#199 = CARTESIAN_POINT ( 'NONE',  ( 2.269462870248036681E-14, -7.960204194457795477E-16, 6.500000000000000000 ) ) ;
#200 = EDGE_LOOP ( 'NONE', ( #45 ) ) ;
#201 = DATE_TIME_ROLE ( 'creation_date' ) ;
#202 = CC_DESIGN_PERSON_AND_ORGANIZATION_ASSIGNMENT ( #59, #220, ( #213 ) ) ;
#203 = DIRECTION ( 'NONE',  ( -3.491481338843133355E-15, 1.224646799147353207E-16, -1.000000000000000000 ) ) ;
#204 = EDGE_CURVE ( 'NONE', #239, #239, #109, .T. ) ;
#205 = LOCAL_TIME ( 11, 23, 4.000000000000000000, #186 ) ;
#206 = ORGANIZATION ( 'UNSPECIFIED', 'UNSPECIFIED', '' ) ;
#207 = MECHANICAL_CONTEXT ( 'NONE', #13, 'mechanical' ) ;
#208 = MANIFOLD_SOLID_BREP ( 'Corps-Déplacer/Copier1[1]', #132 ) ;
#209 = EDGE_LOOP ( 'NONE', ( #189 ) ) ;
#210 = EDGE_LOOP ( 'NONE', ( #51 ) ) ;
#211 = AXIS2_PLACEMENT_3D ( 'NONE', #192, #25, #70 ) ;
#212 = PLANE ( 'NONE',  #66 ) ;
#213 = PRODUCT_DEFINITION_FORMATION_WITH_SPECIFIED_SOURCE ( 'ANY', '', #165, .NOT_KNOWN. ) ;
#214 = DIRECTION ( 'NONE',  ( -3.491481338843133355E-15, 1.224646799147353207E-16, -1.000000000000000000 ) ) ;
#215 = CARTESIAN_POINT ( 'NONE',  ( 1.728283262727351074E-13, 2.999999999999994671, 49.50000000000000000 ) ) ;
#216 = CYLINDRICAL_SURFACE ( 'NONE', #8, 2.000000000000000000 ) ;
#217 = PERSON_AND_ORGANIZATION ( #179, #206 ) ;
#218 = CARTESIAN_POINT ( 'NONE',  ( 2.269462870248036681E-14, 1.349783804395670752E-32, 6.500000000000000000 ) ) ;
#219 = CYLINDRICAL_SURFACE ( 'NONE', #42, 1.800000000000000044 ) ;
#220 = PERSON_AND_ORGANIZATION_ROLE ( 'creator' ) ;
#221 = CARTESIAN_POINT ( 'NONE',  ( 1.745740669421566678E-13, 1.874699728327313799E-32, 50.00000000000000000 ) ) ;
#222 = CARTESIAN_POINT ( 'NONE',  ( -4.275831445896957731E-31, 1.499759782661857608E-32, -1.224646799147353207E-16 ) ) ;
#223 = ORIENTED_EDGE ( 'NONE', *, *, #225, .T. ) ;
#224 = ORIENTED_EDGE ( 'NONE', *, *, #242, .T. ) ;
#225 = EDGE_CURVE ( 'NONE', #91, #91, #129, .T. ) ;
#226 = CARTESIAN_POINT ( 'NONE',  ( 1.745740669421566678E-13, -6.123233995736766085E-15, 50.00000000000000000 ) ) ;
#227 = PRODUCT_RELATED_PRODUCT_CATEGORY ( 'detail', '', ( #165 ) ) ;
#228 = CARTESIAN_POINT ( 'NONE',  ( 3.910459099504312513E-14, -1.371604415045036696E-15, 11.20000000000000817 ) ) ;
#229 = CALENDAR_DATE ( 2024, 12, 7 ) ;
#230 = EDGE_CURVE ( 'NONE', #71, #71, #146, .T. ) ;
#231 = DIRECTION ( 'NONE',  ( 0.000000000000000000, 1.000000000000000000, 0.000000000000000000 ) ) ;
#232 = CALENDAR_DATE ( 2024, 12, 7 ) ;
#233 = DIRECTION ( 'NONE',  ( 0.000000000000000000, 1.000000000000000000, 0.000000000000000000 ) ) ;
#234 = ORIENTED_EDGE ( 'NONE', *, *, #14, .T. ) ;
#235 = CC_DESIGN_PERSON_AND_ORGANIZATION_ASSIGNMENT ( #36, #100, ( #213 ) ) ;
#236 = CC_DESIGN_SECURITY_CLASSIFICATION ( #43, ( #213 ) ) ;
#237 = AXIS2_PLACEMENT_3D ( 'NONE', #2, #73, #231 ) ;
#238 = EDGE_LOOP ( 'NONE', ( #32 ) ) ;
#239 = VERTEX_POINT ( 'NONE', #11 ) ;
#240 = CC_DESIGN_DATE_AND_TIME_ASSIGNMENT ( #102, #201, ( #49 ) ) ;
#241 = CARTESIAN_POINT ( 'NONE',  ( 3.491481338843133355E-14, -1.224646799147353256E-15, 10.00000000000000000 ) ) ;
#242 = EDGE_CURVE ( 'NONE', #95, #95, #50, .T. ) ;
#243 = AXIS2_PLACEMENT_3D ( 'NONE', #69, #126, #151 ) ;
ENDSEC;
END-ISO-10303-21;
