ISO-10303-21;
HEADER;
FILE_DESCRIPTION (( 'STEP AP203' ),
    '1' );
FILE_NAME ('67540.step',
    '2024-07-12T09:23:04',
    ( '' ),
    ( '' ),
    'SwSTEP 2.0',
    'SolidWorks 2022',
    '' );
FILE_SCHEMA (( 'CONFIG_CONTROL_DESIGN' ));
ENDSEC;

DATA;
#1 = APPROVAL_STATUS ( 'not_yet_approved' ) ;
#2 = DIRECTION ( 'NONE',  ( 0.000000000000000000, 0.000000000000000000, 1.000000000000000000 ) ) ;
#3 = DIRECTION ( 'NONE',  ( -3.491481338843133355E-15, 1.224646799147353454E-16, -1.000000000000000000 ) ) ;
#4 = DIRECTION ( 'NONE',  ( 0.000000000000000000, 1.000000000000000000, 0.000000000000000000 ) ) ;
#5 = CC_DESIGN_APPROVAL ( #100, ( #141 ) ) ;
#6 = AXIS2_PLACEMENT_3D ( 'NONE', #51, #222, #221 ) ;
#7 = EDGE_LOOP ( 'NONE', ( #45 ) ) ;
#8 = CIRCLE ( 'NONE', #160, 2.999999999999995559 ) ;
#9 = EDGE_LOOP ( 'NONE', ( #138 ) ) ;
#10 = AXIS2_PLACEMENT_3D ( 'NONE', #172, #146, #68 ) ;
#11 = CC_DESIGN_DATE_AND_TIME_ASSIGNMENT ( #105, #134, ( #121 ) ) ;
#12 = VERTEX_POINT ( 'NONE', #166 ) ;
#13 = ADVANCED_FACE ( 'NONE', ( #76 ), #143, .F. ) ;
#14 = ADVANCED_FACE ( 'NONE', ( #188 ), #79, .F. ) ;
#15 = CC_DESIGN_SECURITY_CLASSIFICATION ( #121, ( #141 ) ) ;
#16 = CARTESIAN_POINT ( 'NONE',  ( 1.396592535537253342E-14, 9.748438587302070346E-33, 4.000000000000000000 ) ) ;
#17 = DIRECTION ( 'NONE',  ( -3.491481338843133355E-15, 1.224646799147353454E-16, -1.000000000000000000 ) ) ;
#18 = CLOSED_SHELL ( 'NONE', ( #13, #107, #191, #219, #149, #14 ) ) ;
#19 = APPROVAL_ROLE ( '' ) ;
#20 = COORDINATED_UNIVERSAL_TIME_OFFSET ( 1, 0, .AHEAD. ) ;
#21 = SECURITY_CLASSIFICATION_LEVEL ( 'unclassified' ) ;
#22 = CC_DESIGN_PERSON_AND_ORGANIZATION_ASSIGNMENT ( #104, #87, ( #121 ) ) ;
#23 = APPROVAL_ROLE ( '' ) ;
#24 = AXIS2_PLACEMENT_3D ( 'NONE', #202, #125, #140 ) ;
#25 = CC_DESIGN_APPROVAL ( #204, ( #154 ) ) ;
#26 = EDGE_LOOP ( 'NONE', ( #206 ) ) ;
#27 = ORIENTED_EDGE ( 'NONE', *, *, #82, .T. ) ;
#28 = EDGE_CURVE ( 'NONE', #212, #212, #156, .T. ) ;
#29 = FACE_BOUND ( 'NONE', #110, .T. ) ;
#30 = DIRECTION ( 'NONE',  ( -3.491481338843133355E-15, 1.224646799147353454E-16, -1.000000000000000000 ) ) ;
#31 = DIRECTION ( 'NONE',  ( 4.275831445896959482E-31, 1.000000000000000000, 1.224646799147353700E-16 ) ) ;
#32 = CARTESIAN_POINT ( 'NONE',  ( 0.000000000000000000, 0.000000000000000000, 0.000000000000000000 ) ) ;
#33 = FACE_OUTER_BOUND ( 'NONE', #240, .T. ) ;
#34 = MANIFOLD_SOLID_BREP ( 'Corps-Déplacer/Copier1[2]', #231 ) ;
#35 = APPROVAL_STATUS ( 'not_yet_approved' ) ;
#36 = AXIS2_PLACEMENT_3D ( 'NONE', #80, #225, #112 ) ;
#37 = PLANE ( 'NONE',  #10 ) ;
#38 = APPROVAL_STATUS ( 'not_yet_approved' ) ;
#39 = PERSON_AND_ORGANIZATION ( #59, #129 ) ;
#40 = CC_DESIGN_PERSON_AND_ORGANIZATION_ASSIGNMENT ( #84, #133, ( #154 ) ) ;
#41 = PERSON_AND_ORGANIZATION ( #59, #129 ) ;
#42 = ADVANCED_FACE ( 'NONE', ( #33 ), #194, .T. ) ;
#43 = APPROVAL_PERSON_ORGANIZATION ( #102, #204, #195 ) ;
#44 = EDGE_LOOP ( 'NONE', ( #123 ) ) ;
#45 = ORIENTED_EDGE ( 'NONE', *, *, #208, .T. ) ;
#46 = AXIS2_PLACEMENT_3D ( 'NONE', #49, #90, #108 ) ;
#47 = EDGE_LOOP ( 'NONE', ( #187 ) ) ;
#48 = CONICAL_SURFACE ( 'NONE', #6, 2.499999999999996003, 0.7853981633974479459 ) ;
#49 = CARTESIAN_POINT ( 'NONE',  ( -6.413747168845439661E-31, 2.249639673992787507E-32, -1.836970198721030427E-16 ) ) ;
#50 = PRODUCT_RELATED_PRODUCT_CATEGORY ( 'detail', '', ( #199 ) ) ;
#51 = CARTESIAN_POINT ( 'NONE',  ( 1.466422162314116009E-13, -5.143516556418884900E-15, 42.00000000000000000 ) ) ;
#52 = AXIS2_PLACEMENT_3D ( 'NONE', #186, #75, #4 ) ;
#53 = VERTEX_POINT ( 'NONE', #185 ) ;
#54 = DIRECTION ( 'NONE',  ( 4.275831445896959482E-31, 1.000000000000000000, 1.224646799147353700E-16 ) ) ;
#55 = EDGE_LOOP ( 'NONE', ( #165 ) ) ;
#56 = ADVANCED_FACE ( 'NONE', ( #192 ), #37, .T. ) ;
#57 = LOCAL_TIME ( 11, 23, 4.000000000000000000, #130 ) ;
#58 = PERSON_AND_ORGANIZATION ( #59, #129 ) ;
#59 = PERSON ( 'UNSPECIFIED', 'UNSPECIFIED', 'UNSPECIFIED', ('UNSPECIFIED'), ('UNSPECIFIED'), ('UNSPECIFIED') ) ;
#60 = APPROVAL_DATE_TIME ( #147, #100 ) ;
#61 = DATE_AND_TIME ( #228, #117 ) ;
#62 = CARTESIAN_POINT ( 'NONE',  ( 2.688440630909217732E-14, -9.429780353434640723E-16, 7.700000000000015277 ) ) ;
#63 = PERSON_AND_ORGANIZATION ( #59, #129 ) ;
#64 = PERSON_AND_ORGANIZATION_ROLE ( 'design_owner' ) ;
#65 = PERSON_AND_ORGANIZATION_ROLE ( 'design_supplier' ) ;
#66 = DIRECTION ( 'NONE',  ( 3.491481338843133355E-15, -1.224646799147353454E-16, 1.000000000000000000 ) ) ;
#67 = CIRCLE ( 'NONE', #197, 1.299999999999999822 ) ;
#68 = DIRECTION ( 'NONE',  ( -4.275831445896959482E-31, -1.000000000000000000, -1.224646799147353454E-16 ) ) ;
#69 = ORIENTED_EDGE ( 'NONE', *, *, #163, .F. ) ;
#70 = FACE_OUTER_BOUND ( 'NONE', #7, .T. ) ;
#71 = ORIENTED_EDGE ( 'NONE', *, *, #211, .T. ) ;
#72 = EDGE_LOOP ( 'NONE', ( #113 ) ) ;
#73 = AXIS2_PLACEMENT_3D ( 'NONE', #170, #168, #31 ) ;
#74 = VERTEX_POINT ( 'NONE', #142 ) ;
#75 = DIRECTION ( 'NONE',  ( -3.491481338843133355E-15, 1.224646799147353454E-16, -1.000000000000000000 ) ) ;
#76 = FACE_OUTER_BOUND ( 'NONE', #72, .T. ) ;
#77 = CIRCLE ( 'NONE', #52, 2.999999999999996003 ) ;
#78 = AXIS2_PLACEMENT_3D ( 'NONE', #16, #97, #127 ) ;
#79 = PLANE ( 'NONE',  #243 ) ;
#80 = CARTESIAN_POINT ( 'NONE',  ( 1.466422162314116009E-13, -5.143516556418884900E-15, 42.00000000000000000 ) ) ;
#81 = PERSON_AND_ORGANIZATION ( #59, #129 ) ;
#82 = EDGE_CURVE ( 'NONE', #183, #183, #175, .T. ) ;
#83 = CARTESIAN_POINT ( 'NONE',  ( 0.000000000000000000, 0.000000000000000000, 0.000000000000000000 ) ) ;
#84 = PERSON_AND_ORGANIZATION ( #59, #129 ) ;
#85 = DATE_AND_TIME ( #135, #177 ) ;
#86 = APPLICATION_CONTEXT ( 'configuration controlled 3d designs of mechanical parts and assemblies' ) ;
#87 = PERSON_AND_ORGANIZATION_ROLE ( 'classification_officer' ) ;
#88 = LOCAL_TIME ( 11, 23, 4.000000000000000000, #213 ) ;
#89 = CARTESIAN_POINT ( 'NONE',  ( 2.094888803305880013E-14, -7.347880794884121708E-16, 6.000000000000000000 ) ) ;
#90 = DIRECTION ( 'NONE',  ( -3.491481338843133355E-15, 1.224646799147353454E-16, -1.000000000000000000 ) ) ;
#91 = CONICAL_SURFACE ( 'NONE', #182, 1.299999999999999822, 0.7853981633974427279 ) ;
#92 = CC_DESIGN_PERSON_AND_ORGANIZATION_ASSIGNMENT ( #81, #64, ( #199 ) ) ;
#93 = DESIGN_CONTEXT ( 'detailed design', #241, 'design' ) ;
#94 = CC_DESIGN_PERSON_AND_ORGANIZATION_ASSIGNMENT ( #41, #226, ( #141 ) ) ;
#95 = ORIENTED_EDGE ( 'NONE', *, *, #232, .T. ) ;
#96 = VERTEX_POINT ( 'NONE', #144 ) ;
#97 = DIRECTION ( 'NONE',  ( 3.491481338843133355E-15, -1.224646799147353454E-16, 1.000000000000000000 ) ) ;
#98 = DIRECTION ( 'NONE',  ( 4.275831445896959482E-31, 1.000000000000000000, 1.224646799147353454E-16 ) ) ;
#99 = EDGE_CURVE ( 'NONE', #12, #12, #210, .T. ) ;
#100 = APPROVAL ( #35, 'UNSPECIFIED' ) ;
#101 =( LENGTH_UNIT ( ) NAMED_UNIT ( * ) SI_UNIT ( .MILLI., .METRE. ) );
#102 = PERSON_AND_ORGANIZATION ( #59, #129 ) ;
#103 = COORDINATED_UNIVERSAL_TIME_OFFSET ( 1, 0, .AHEAD. ) ;
#104 = PERSON_AND_ORGANIZATION ( #59, #129 ) ;
#105 = DATE_AND_TIME ( #151, #57 ) ;
#106 = APPROVAL_PERSON_ORGANIZATION ( #39, #100, #19 ) ;
#107 = ADVANCED_FACE ( 'NONE', ( #70, #139 ), #122, .T. ) ;
#108 = DIRECTION ( 'NONE',  ( 4.275831445896959482E-31, 1.000000000000000000, 1.224646799147353700E-16 ) ) ;
#109 = UNCERTAINTY_MEASURE_WITH_UNIT (LENGTH_MEASURE( 1.000000000000000082E-05 ), #101, 'distance_accuracy_value', 'NONE');
#110 = EDGE_LOOP ( 'NONE', ( #95 ) ) ;
#111 = DIRECTION ( 'NONE',  ( 0.000000000000000000, 1.000000000000000000, 0.000000000000000000 ) ) ;
#112 = DIRECTION ( 'NONE',  ( 0.000000000000000000, 1.000000000000000000, 0.000000000000000000 ) ) ;
#113 = ORIENTED_EDGE ( 'NONE', *, *, #28, .T. ) ;
#114 = CARTESIAN_POINT ( 'NONE',  ( 1.396592535537253342E-14, 1.299999999999999378, 4.000000000000000000 ) ) ;
#115 = AXIS2_PLACEMENT_3D ( 'NONE', #178, #159, #233 ) ;
#116 =( NAMED_UNIT ( * ) SI_UNIT ( $, .STERADIAN. ) SOLID_ANGLE_UNIT ( ) );
#117 = LOCAL_TIME ( 11, 23, 4.000000000000000000, #20 ) ;
#118 = CARTESIAN_POINT ( 'NONE',  ( -3.206873584422719831E-31, 1.124819836996393753E-32, -9.184850993605152135E-17 ) ) ;
#119 = CALENDAR_DATE ( 2024, 12, 7 ) ;
#120 = MANIFOLD_SOLID_BREP ( 'Corps-Déplacer/Copier1[1]', #18 ) ;
#121 = SECURITY_CLASSIFICATION ( '', '', #21 ) ;
#122 = CYLINDRICAL_SURFACE ( 'NONE', #24, 1.299999999999999822 ) ;
#123 = ORIENTED_EDGE ( 'NONE', *, *, #211, .F. ) ;
#124 = FACE_OUTER_BOUND ( 'NONE', #205, .T. ) ;
#125 = DIRECTION ( 'NONE',  ( -3.491481338843133355E-15, 1.224646799147353454E-16, -1.000000000000000000 ) ) ;
#126 = CARTESIAN_POINT ( 'NONE',  ( -8.552847072295026068E-47, 1.500000000000000000, 0.000000000000000000 ) ) ;
#127 = DIRECTION ( 'NONE',  ( -4.275831445896959482E-31, -1.000000000000000000, -1.224646799147353454E-16 ) ) ;
#128 = DATE_AND_TIME ( #119, #88 ) ;
#129 = ORGANIZATION ( 'UNSPECIFIED', 'UNSPECIFIED', '' ) ;
#130 = COORDINATED_UNIVERSAL_TIME_OFFSET ( 1, 0, .AHEAD. ) ;
#131 = MECHANICAL_CONTEXT ( 'NONE', #86, 'mechanical' ) ;
#132 = FACE_OUTER_BOUND ( 'NONE', #179, .T. ) ;
#133 = PERSON_AND_ORGANIZATION_ROLE ( 'creator' ) ;
#134 = DATE_TIME_ROLE ( 'classification_date' ) ;
#135 = CALENDAR_DATE ( 2024, 12, 7 ) ;
#136 = CC_DESIGN_DATE_AND_TIME_ASSIGNMENT ( #61, #217, ( #154 ) ) ;
#137 = CARTESIAN_POINT ( 'NONE',  ( 2.094888803305880013E-14, -7.347880794884121708E-16, 6.000000000000000000 ) ) ;
#138 = ORIENTED_EDGE ( 'NONE', *, *, #208, .F. ) ;
#139 = FACE_OUTER_BOUND ( 'NONE', #180, .T. ) ;
#140 = DIRECTION ( 'NONE',  ( 4.275831445896959482E-31, 1.000000000000000000, 1.224646799147353207E-16 ) ) ;
#141 = PRODUCT_DEFINITION_FORMATION_WITH_SPECIFIED_SOURCE ( 'ANY', '', #199, .NOT_KNOWN. ) ;
#142 = CARTESIAN_POINT ( 'NONE',  ( 2.688440630909217732E-14, 2.999999999999994671, 7.700000000000015277 ) ) ;
#143 = PLANE ( 'NONE',  #78 ) ;
#144 = CARTESIAN_POINT ( 'NONE',  ( 1.448964755619900406E-13, 2.999999999999991118, 41.50000000000000000 ) ) ;
#145 = AXIS2_PLACEMENT_3D ( 'NONE', #32, #167, #54 ) ;
#146 = DIRECTION ( 'NONE',  ( 3.491481338843133355E-15, -1.224646799147353454E-16, 1.000000000000000000 ) ) ;
#147 = DATE_AND_TIME ( #174, #148 ) ;
#148 = LOCAL_TIME ( 11, 23, 4.000000000000000000, #103 ) ;
#149 = ADVANCED_FACE ( 'NONE', ( #207, #29 ), #48, .T. ) ;
#150 = DIRECTION ( 'NONE',  ( -3.491481338843133355E-15, 1.224646799147353454E-16, -1.000000000000000000 ) ) ;
#151 = CALENDAR_DATE ( 2024, 12, 7 ) ;
#152 = DIRECTION ( 'NONE',  ( 0.000000000000000000, -1.000000000000000000, 0.000000000000000000 ) ) ;
#153 = AXIS2_PLACEMENT_3D ( 'NONE', #118, #150, #230 ) ;
#154 = PRODUCT_DEFINITION ( 'UNKNOWN', '', #141, #93 ) ;
#155 = APPROVAL_DATE_TIME ( #85, #242 ) ;
#156 = CIRCLE ( 'NONE', #223, 1.299999999999999822 ) ;
#157 = ADVANCED_FACE ( 'NONE', ( #164, #235 ), #214, .T. ) ;
#158 = ADVANCED_BREP_SHAPE_REPRESENTATION ( '67540', ( #120, #34, #215 ), #237 ) ;
#159 = DIRECTION ( 'NONE',  ( -3.491481338843133355E-15, 1.224646799147353454E-16, -1.000000000000000000 ) ) ;
#160 = AXIS2_PLACEMENT_3D ( 'NONE', #62, #218, #196 ) ;
#161 = EDGE_LOOP ( 'NONE', ( #201 ) ) ;
#162 = FACE_OUTER_BOUND ( 'NONE', #44, .T. ) ;
#163 = EDGE_CURVE ( 'NONE', #96, #96, #77, .T. ) ;
#164 = FACE_OUTER_BOUND ( 'NONE', #47, .T. ) ;
#165 = ORIENTED_EDGE ( 'NONE', *, *, #99, .F. ) ;
#166 = CARTESIAN_POINT ( 'NONE',  ( 1.396592535537253342E-14, 1.499999999999999556, 4.000000000000000000 ) ) ;
#167 = DIRECTION ( 'NONE',  ( -3.491481338843133355E-15, 1.224646799147353454E-16, -1.000000000000000000 ) ) ;
#168 = DIRECTION ( 'NONE',  ( -3.491481338843133355E-15, 1.224646799147353454E-16, -1.000000000000000000 ) ) ;
#169 = CARTESIAN_POINT ( 'NONE',  ( 1.396592535537253342E-14, -4.898587196589413815E-16, 4.000000000000000000 ) ) ;
#170 = CARTESIAN_POINT ( 'NONE',  ( 0.000000000000000000, 0.000000000000000000, 0.000000000000000000 ) ) ;
#171 =( NAMED_UNIT ( * ) PLANE_ANGLE_UNIT ( ) SI_UNIT ( $, .RADIAN. ) );
#172 = CARTESIAN_POINT ( 'NONE',  ( 1.396592535537253342E-14, 1.124819836996393069E-32, 4.000000000000000000 ) ) ;
#173 = SHAPE_DEFINITION_REPRESENTATION ( #236, #158 ) ;
#174 = CALENDAR_DATE ( 2024, 12, 7 ) ;
#175 = CIRCLE ( 'NONE', #46, 1.500000000000000000 ) ;
#176 = COORDINATED_UNIVERSAL_TIME_OFFSET ( 1, 0, .AHEAD. ) ;
#177 = LOCAL_TIME ( 11, 23, 4.000000000000000000, #176 ) ;
#178 = CARTESIAN_POINT ( 'NONE',  ( 1.396592535537253342E-14, -4.898587196589413815E-16, 4.000000000000000000 ) ) ;
#179 = EDGE_LOOP ( 'NONE', ( #71 ) ) ;
#180 = EDGE_LOOP ( 'NONE', ( #234 ) ) ;
#181 = CC_DESIGN_PERSON_AND_ORGANIZATION_ASSIGNMENT ( #63, #65, ( #141 ) ) ;
#182 = AXIS2_PLACEMENT_3D ( 'NONE', #89, #66, #152 ) ;
#183 = VERTEX_POINT ( 'NONE', #126 ) ;
#184 = CARTESIAN_POINT ( 'NONE',  ( 1.466422162314116009E-13, 1.874699728327312157E-32, 42.00000000000000000 ) ) ;
#185 = CARTESIAN_POINT ( 'NONE',  ( 1.466422162314116009E-13, 2.499999999999991118, 42.00000000000000000 ) ) ;
#186 = CARTESIAN_POINT ( 'NONE',  ( 1.448964755619900406E-13, -5.082284216461516537E-15, 41.50000000000000000 ) ) ;
#187 = ORIENTED_EDGE ( 'NONE', *, *, #99, .T. ) ;
#188 = FACE_OUTER_BOUND ( 'NONE', #26, .T. ) ;
#189 = APPLICATION_PROTOCOL_DEFINITION ( 'international standard', 'config_control_design', 1994, #241 ) ;
#190 = CIRCLE ( 'NONE', #36, 2.499999999999996003 ) ;
#191 = ADVANCED_FACE ( 'NONE', ( #132, #198 ), #91, .T. ) ;
#192 = FACE_OUTER_BOUND ( 'NONE', #55, .T. ) ;
#193 = DIRECTION ( 'NONE',  ( 1.000000000000000000, 0.000000000000000000, 0.000000000000000000 ) ) ;
#194 = PLANE ( 'NONE',  #153 ) ;
#195 = APPROVAL_ROLE ( '' ) ;
#196 = DIRECTION ( 'NONE',  ( 0.000000000000000000, 1.000000000000000000, 0.000000000000000000 ) ) ;
#197 = AXIS2_PLACEMENT_3D ( 'NONE', #137, #3, #229 ) ;
#198 = FACE_BOUND ( 'NONE', #9, .T. ) ;
#199 = PRODUCT ( '67540', '67540', '', ( #131 ) ) ;
#200 = APPROVAL_PERSON_ORGANIZATION ( #58, #242, #23 ) ;
#201 = ORIENTED_EDGE ( 'NONE', *, *, #82, .F. ) ;
#202 = CARTESIAN_POINT ( 'NONE',  ( 0.000000000000000000, 0.000000000000000000, 0.000000000000000000 ) ) ;
#203 = ORIENTED_EDGE ( 'NONE', *, *, #163, .T. ) ;
#204 = APPROVAL ( #38, 'UNSPECIFIED' ) ;
#205 = EDGE_LOOP ( 'NONE', ( #203 ) ) ;
#206 = ORIENTED_EDGE ( 'NONE', *, *, #232, .F. ) ;
#207 = FACE_OUTER_BOUND ( 'NONE', #220, .T. ) ;
#208 = EDGE_CURVE ( 'NONE', #238, #238, #67, .T. ) ;
#209 = APPROVAL_DATE_TIME ( #128, #204 ) ;
#210 = CIRCLE ( 'NONE', #115, 1.500000000000000000 ) ;
#211 = EDGE_CURVE ( 'NONE', #74, #74, #8, .T. ) ;
#212 = VERTEX_POINT ( 'NONE', #114 ) ;
#213 = COORDINATED_UNIVERSAL_TIME_OFFSET ( 1, 0, .AHEAD. ) ;
#214 = CYLINDRICAL_SURFACE ( 'NONE', #145, 1.500000000000000000 ) ;
#215 = AXIS2_PLACEMENT_3D ( 'NONE', #83, #2, #193 ) ;
#216 = APPLICATION_PROTOCOL_DEFINITION ( 'international standard', 'config_control_design', 1994, #86 ) ;
#217 = DATE_TIME_ROLE ( 'creation_date' ) ;
#218 = DIRECTION ( 'NONE',  ( -3.491481338843133355E-15, 1.224646799147353454E-16, -1.000000000000000000 ) ) ;
#219 = ADVANCED_FACE ( 'NONE', ( #162, #124 ), #239, .T. ) ;
#220 = EDGE_LOOP ( 'NONE', ( #69 ) ) ;
#221 = DIRECTION ( 'NONE',  ( 0.000000000000000000, 1.000000000000000000, 0.000000000000000000 ) ) ;
#222 = DIRECTION ( 'NONE',  ( -3.491481338843133355E-15, 1.224646799147353454E-16, -1.000000000000000000 ) ) ;
#223 = AXIS2_PLACEMENT_3D ( 'NONE', #169, #30, #111 ) ;
#224 = CARTESIAN_POINT ( 'NONE',  ( 2.094888803305880013E-14, 1.299999999999999156, 6.000000000000000000 ) ) ;
#225 = DIRECTION ( 'NONE',  ( -3.491481338843133355E-15, 1.224646799147353454E-16, -1.000000000000000000 ) ) ;
#226 = PERSON_AND_ORGANIZATION_ROLE ( 'creator' ) ;
#227 = CC_DESIGN_APPROVAL ( #242, ( #121 ) ) ;
#228 = CALENDAR_DATE ( 2024, 12, 7 ) ;
#229 = DIRECTION ( 'NONE',  ( 0.000000000000000000, 1.000000000000000000, 0.000000000000000000 ) ) ;
#230 = DIRECTION ( 'NONE',  ( 4.275831445896959482E-31, 1.000000000000000000, 1.224646799147353454E-16 ) ) ;
#231 = CLOSED_SHELL ( 'NONE', ( #42, #157, #56 ) ) ;
#232 = EDGE_CURVE ( 'NONE', #53, #53, #190, .T. ) ;
#233 = DIRECTION ( 'NONE',  ( 0.000000000000000000, 1.000000000000000000, 0.000000000000000000 ) ) ;
#234 = ORIENTED_EDGE ( 'NONE', *, *, #28, .F. ) ;
#235 = FACE_OUTER_BOUND ( 'NONE', #161, .T. ) ;
#236 = PRODUCT_DEFINITION_SHAPE ( 'NONE', 'NONE',  #154 ) ;
#237 =( GEOMETRIC_REPRESENTATION_CONTEXT ( 3 ) GLOBAL_UNCERTAINTY_ASSIGNED_CONTEXT ( ( #109 ) ) GLOBAL_UNIT_ASSIGNED_CONTEXT ( ( #101, #171, #116 ) ) REPRESENTATION_CONTEXT ( 'NONE', 'WORKASPACE' ) );
#238 = VERTEX_POINT ( 'NONE', #224 ) ;
#239 = CYLINDRICAL_SURFACE ( 'NONE', #73, 2.999999999999995559 ) ;
#240 = EDGE_LOOP ( 'NONE', ( #27 ) ) ;
#241 = APPLICATION_CONTEXT ( 'configuration controlled 3d designs of mechanical parts and assemblies' ) ;
#242 = APPROVAL ( #1, 'UNSPECIFIED' ) ;
#243 = AXIS2_PLACEMENT_3D ( 'NONE', #184, #17, #98 ) ;
ENDSEC;
END-ISO-10303-21;
