ISO-10303-21;
HEADER;
FILE_DESCRIPTION (( 'STEP AP214' ),
    '1' );
FILE_NAME ('67457.step',
    '2024-04-04T13:00:14',
    ( '' ),
    ( '' ),
    'SwSTEP 2.0',
    'SolidWorks 2022',
    '' );
FILE_SCHEMA (( 'AUTOMOTIVE_DESIGN' ));
ENDSEC;

DATA;
#1 = AXIS2_PLACEMENT_3D ( 'NONE', #148, #14, #100 ) ;
#2 = CIRCLE ( 'NONE', #171, 3.999999999999995559 ) ;
#3 = DIRECTION ( 'NONE',  ( -3.491481338843133355E-15, 1.224646799147353207E-16, -1.000000000000000000 ) ) ;
#4 = DIRECTION ( 'NONE',  ( 3.285674118869263394E-15, -0.3382550599108810063, 0.9410544694355829076 ) ) ;
#5 = ORIENTED_EDGE ( 'NONE', *, *, #119, .F. ) ;
#6 = CARTESIAN_POINT ( 'NONE',  ( 6.721101577273031393E-14, 0.000000000000000000, 19.25000000000000000 ) ) ;
#7 = VERTEX_POINT ( 'NONE', #62 ) ;
#8 = ORIENTED_EDGE ( 'NONE', *, *, #93, .T. ) ;
#9 = MECHANICAL_DESIGN_GEOMETRIC_PRESENTATION_REPRESENTATION (  '', ( #245 ), #251 ) ;
#10 = ORIENTED_EDGE ( 'NONE', *, *, #338, .T. ) ;
#11 = PRODUCT_DEFINITION_CONTEXT ( 'detailed design', #73, 'design' ) ;
#12 = ORIENTED_EDGE ( 'NONE', *, *, #86, .F. ) ;
#13 = CARTESIAN_POINT ( 'NONE',  ( 2.171701392760428316E-13, -7.617303090696535366E-15, 62.19999999999998153 ) ) ;
#14 = DIRECTION ( 'NONE',  ( 3.491481338843133355E-15, -0.000000000000000000, 1.000000000000000000 ) ) ;
#15 = AXIS2_PLACEMENT_3D ( 'NONE', #95, #184, #209 ) ;
#16 = CIRCLE ( 'NONE', #216, 3.950000000000001066 ) ;
#17 = CARTESIAN_POINT ( 'NONE',  ( 3.950000000000065459, 0.000000000000000000, 19.24999999999998579 ) ) ;
#18 = FILL_AREA_STYLE_COLOUR ( '', #170 ) ;
#19 = CARTESIAN_POINT ( 'NONE',  ( 2.171701392760428316E-13, -7.617303090696535366E-15, 62.19999999999998153 ) ) ;
#20 = ADVANCED_FACE ( 'NONE', ( #37 ), #134, .T. ) ;
#21 = DIRECTION ( 'NONE',  ( 1.000000000000000000, 0.000000000000000000, 0.000000000000000000 ) ) ;
#22 = SURFACE_STYLE_USAGE ( .BOTH. , #241 ) ;
#23 = DIRECTION ( 'NONE',  ( 3.491481338843133355E-15, -0.000000000000000000, 1.000000000000000000 ) ) ;
#24 = VECTOR ( 'NONE', #207, 1000.000000000000000 ) ;
#25 =( LENGTH_UNIT ( ) NAMED_UNIT ( * ) SI_UNIT ( .MILLI., .METRE. ) );
#26 = PRODUCT_CONTEXT ( 'NONE', #76, 'mechanical' ) ;
#27 = CARTESIAN_POINT ( 'NONE',  ( 3.950000000000000178, 0.000000000000000000, -1.379135128843037675E-14 ) ) ;
#28 = CONICAL_SURFACE ( 'NONE', #177, 3.999999999999998224, 0.7853981633974456145 ) ;
#29 = EDGE_CURVE ( 'NONE', #173, #255, #304, .T. ) ;
#30 = DIRECTION ( 'NONE',  ( 1.000000000000000000, 0.000000000000000000, -3.513364001978343667E-15 ) ) ;
#31 = AXIS2_PLACEMENT_3D ( 'NONE', #49, #158, #242 ) ;
#32 = LINE ( 'NONE', #246, #115 ) ;
#33 = DIRECTION ( 'NONE',  ( 1.000000000000000000, 0.000000000000000000, -3.513364001978344456E-15 ) ) ;
#34 = LINE ( 'NONE', #112, #199 ) ;
#35 = ORIENTED_EDGE ( 'NONE', *, *, #41, .T. ) ;
#36 = ORIENTED_EDGE ( 'NONE', *, *, #143, .T. ) ;
#37 = FACE_OUTER_BOUND ( 'NONE', #89, .T. ) ;
#38 = EDGE_LOOP ( 'NONE', ( #5, #269, #121, #249 ) ) ;
#39 = FACE_OUTER_BOUND ( 'NONE', #145, .T. ) ;
#40 = CARTESIAN_POINT ( 'NONE',  ( 0.000000000000000000, 0.000000000000000000, 0.000000000000000000 ) ) ;
#41 = EDGE_CURVE ( 'NONE', #327, #173, #83, .T. ) ;
#42 = FACE_OUTER_BOUND ( 'NONE', #219, .T. ) ;
#43 = FACE_OUTER_BOUND ( 'NONE', #253, .T. ) ;
#44 = CIRCLE ( 'NONE', #178, 3.199999999999986855 ) ;
#45 = ADVANCED_FACE ( 'NONE', ( #312 ), #28, .T. ) ;
#46 = LINE ( 'NONE', #123, #24 ) ;
#47 = FACE_OUTER_BOUND ( 'NONE', #279, .T. ) ;
#48 = FACE_OUTER_BOUND ( 'NONE', #222, .T. ) ;
#49 = CARTESIAN_POINT ( 'NONE',  ( 0.000000000000000000, 0.000000000000000000, 0.000000000000000000 ) ) ;
#50 = CIRCLE ( 'NONE', #150, 3.950000000000001066 ) ;
#51 = CIRCLE ( 'NONE', #228, 3.949999999999998845 ) ;
#52 =( NAMED_UNIT ( * ) SI_UNIT ( $, .STERADIAN. ) SOLID_ANGLE_UNIT ( ) );
#53 = CIRCLE ( 'NONE', #1, 3.950000000000000178 ) ;
#54 = CONICAL_SURFACE ( 'NONE', #160, 3.950000000000001066, 0.3450620389298179047 ) ;
#55 = ADVANCED_FACE ( 'NONE', ( #43 ), #211, .F. ) ;
#56 = PRODUCT_RELATED_PRODUCT_CATEGORY ( 'part', '', ( #84 ) ) ;
#57 = ADVANCED_BREP_SHAPE_REPRESENTATION ( '67457', ( #166, #165, #159 ), #221 ) ;
#58 = DIRECTION ( 'NONE',  ( 0.000000000000000000, -1.000000000000000000, 0.000000000000000000 ) ) ;
#59 = APPLICATION_PROTOCOL_DEFINITION ( 'draft international standard', 'automotive_design', 1998, #76 ) ;
#60 = EDGE_LOOP ( 'NONE', ( #139, #276, #232, #227 ) ) ;
#61 = ORIENTED_EDGE ( 'NONE', *, *, #29, .F. ) ;
#62 = CARTESIAN_POINT ( 'NONE',  ( 2.190076046592731416E-13, -3.199999999999994404, 63.00000000000000000 ) ) ;
#63 = ORIENTED_EDGE ( 'NONE', *, *, #102, .F. ) ;
#64 = DIRECTION ( 'NONE',  ( 3.491481338843133355E-15, -0.000000000000000000, 1.000000000000000000 ) ) ;
#65 = EDGE_LOOP ( 'NONE', ( #297, #280, #226, #247 ) ) ;
#66 = DIRECTION ( 'NONE',  ( 0.000000000000000000, 1.000000000000000000, 0.000000000000000000 ) ) ;
#67 = LINE ( 'NONE', #309, #130 ) ;
#68 = DIRECTION ( 'NONE',  ( -3.491481338843133355E-15, 1.224646799147353207E-16, -1.000000000000000000 ) ) ;
#69 = CIRCLE ( 'NONE', #270, 3.999999999999998224 ) ;
#70 = CARTESIAN_POINT ( 'NONE',  ( 0.000000000000000000, 0.000000000000000000, 0.000000000000000000 ) ) ;
#71 = PRESENTATION_STYLE_ASSIGNMENT (( #22 ) ) ;
#72 = DIRECTION ( 'NONE',  ( 1.000000000000000000, 0.000000000000000000, -3.491481338843133355E-15 ) ) ;
#73 = APPLICATION_CONTEXT ( 'automotive_design' ) ;
#74 =( LENGTH_UNIT ( ) NAMED_UNIT ( * ) SI_UNIT ( .MILLI., .METRE. ) );
#75 = ADVANCED_FACE ( 'NONE', ( #48 ), #188, .F. ) ;
#76 = APPLICATION_CONTEXT ( 'automotive_design' ) ;
#77 = FILL_AREA_STYLE_COLOUR ( '', #191 ) ;
#78 =( NAMED_UNIT ( * ) PLANE_ANGLE_UNIT ( ) SI_UNIT ( $, .RADIAN. ) );
#79 = CONICAL_SURFACE ( 'NONE', #234, 3.950000000000001066, 0.3450620389298179047 ) ;
#80 = DIRECTION ( 'NONE',  ( 4.275831445896958607E-31, 1.000000000000000000, 1.224646799147353207E-16 ) ) ;
#81 = ORIENTED_EDGE ( 'NONE', *, *, #293, .F. ) ;
#82 = UNCERTAINTY_MEASURE_WITH_UNIT (LENGTH_MEASURE( 1.000000000000000082E-05 ), #25, 'distance_accuracy_value', 'NONE');
#83 = LINE ( 'NONE', #200, #210 ) ;
#84 = PRODUCT ( '67457', '67457', '', ( #26 ) ) ;
#85 = VERTEX_POINT ( 'NONE', #236 ) ;
#86 = EDGE_CURVE ( 'NONE', #327, #218, #53, .T. ) ;
#87 = ORIENTED_EDGE ( 'NONE', *, *, #315, .F. ) ;
#88 = CARTESIAN_POINT ( 'NONE',  ( 2.199633243471174140E-13, -7.715274834628325378E-15, 63.00000000000000000 ) ) ;
#89 = EDGE_LOOP ( 'NONE', ( #230, #146, #343, #278 ) ) ;
#90 = AXIS2_PLACEMENT_3D ( 'NONE', #13, #140, #180 ) ;
#91 = FACE_OUTER_BOUND ( 'NONE', #141, .T. ) ;
#92 = DIRECTION ( 'NONE',  ( 4.275831445896958607E-31, 1.000000000000000000, 1.224646799147353207E-16 ) ) ;
#93 = EDGE_CURVE ( 'NONE', #205, #108, #67, .T. ) ;
#94 = DIRECTION ( 'NONE',  ( -4.275831445896958607E-31, -1.000000000000000000, -1.224646799147353207E-16 ) ) ;
#95 = CARTESIAN_POINT ( 'NONE',  ( 0.000000000000000000, 0.000000000000000000, 0.000000000000000000 ) ) ;
#96 =( LENGTH_UNIT ( ) NAMED_UNIT ( * ) SI_UNIT ( .MILLI., .METRE. ) );
#97 = DIRECTION ( 'NONE',  ( -3.491481338843133355E-15, 1.224646799147353207E-16, -1.000000000000000000 ) ) ;
#98 =( NAMED_UNIT ( * ) SI_UNIT ( $, .STERADIAN. ) SOLID_ANGLE_UNIT ( ) );
#99 = CARTESIAN_POINT ( 'NONE',  ( 6.721101577273031393E-14, -2.357445088358654757E-15, 19.25000000000000000 ) ) ;
#100 = DIRECTION ( 'NONE',  ( 1.000000000000000000, 0.000000000000000000, -3.491481338843133355E-15 ) ) ;
#101 = CARTESIAN_POINT ( 'NONE',  ( 1.429232762269665428E-13, -4.000000000000006217, 62.19999999999998153 ) ) ;
#102 = EDGE_CURVE ( 'NONE', #326, #229, #46, .T. ) ;
#103 = UNCERTAINTY_MEASURE_WITH_UNIT (LENGTH_MEASURE( 1.000000000000000082E-05 ), #96, 'distance_accuracy_value', 'NONE');
#104 = FACE_OUTER_BOUND ( 'NONE', #201, .T. ) ;
#105 = PRESENTATION_LAYER_ASSIGNMENT (  '', '', ( #245 ) ) ;
#106 = COLOUR_RGB ( '',1.000000000000000000, 1.000000000000000000, 1.000000000000000000 ) ;
#107 = CYLINDRICAL_SURFACE ( 'NONE', #31, 3.999999999999998224 ) ;
#108 = VERTEX_POINT ( 'NONE', #214 ) ;
#109 = CLOSED_SHELL ( 'NONE', ( #20, #324, #187, #301, #321, #131, #168, #45 ) ) ;
#110 = AXIS2_PLACEMENT_3D ( 'NONE', #272, #169, #94 ) ;
#111 = DIRECTION ( 'NONE',  ( -2.468850131082272049E-15, 0.7071067811865456854, -0.7071067811865493491 ) ) ;
#112 = CARTESIAN_POINT ( 'NONE',  ( 3.950000000000066347, 0.000000000000000000, 19.24999999999998579 ) ) ;
#113 = ORIENTED_EDGE ( 'NONE', *, *, #117, .T. ) ;
#114 = DIRECTION ( 'NONE',  ( 3.491481338843133355E-15, -0.000000000000000000, 1.000000000000000000 ) ) ;
#115 = VECTOR ( 'NONE', #4, 1000.000000000000000 ) ;
#116 = ORIENTED_EDGE ( 'NONE', *, *, #314, .T. ) ;
#117 = EDGE_CURVE ( 'NONE', #326, #205, #69, .T. ) ;
#118 = ORIENTED_EDGE ( 'NONE', *, *, #136, .T. ) ;
#119 = EDGE_CURVE ( 'NONE', #176, #229, #331, .T. ) ;
#120 = DIRECTION ( 'NONE',  ( 1.000000000000000000, 0.000000000000000000, -3.513364001978343667E-15 ) ) ;
#121 = ORIENTED_EDGE ( 'NONE', *, *, #315, .T. ) ;
#122 = VECTOR ( 'NONE', #126, 1000.000000000000000 ) ;
#123 = CARTESIAN_POINT ( 'NONE',  ( 1.710332578358782742E-30, 3.999999999999998224, 4.898587196589410857E-16 ) ) ;
#124 = DIRECTION ( 'NONE',  ( -1.000000000000000000, 0.000000000000000000, 3.491481338843133355E-15 ) ) ;
#125 =( NAMED_UNIT ( * ) PLANE_ANGLE_UNIT ( ) SI_UNIT ( $, .RADIAN. ) );
#126 = DIRECTION ( 'NONE',  ( -2.382254525458723780E-15, -0.7071067811865454633, -0.7071067811865495711 ) ) ;
#127 = DIRECTION ( 'NONE',  ( 0.000000000000000000, 0.000000000000000000, 1.000000000000000000 ) ) ;
#128 = SURFACE_STYLE_USAGE ( .BOTH. , #162 ) ;
#129 = DIRECTION ( 'NONE',  ( -3.491481338843133355E-15, 0.000000000000000000, -1.000000000000000000 ) ) ;
#130 = VECTOR ( 'NONE', #68, 1000.000000000000000 ) ;
#131 = ADVANCED_FACE ( 'NONE', ( #288 ), #237, .T. ) ;
#132 = AXIS2_PLACEMENT_3D ( 'NONE', #6, #223, #30 ) ;
#133 = CARTESIAN_POINT ( 'NONE',  ( 2.185667318115801102E-13, 3.199999999999978861, 63.00000000000000000 ) ) ;
#134 = CONICAL_SURFACE ( 'NONE', #239, 3.999999999999998224, 0.7853981633974456145 ) ;
#135 = ORIENTED_EDGE ( 'NONE', *, *, #281, .T. ) ;
#136 = EDGE_CURVE ( 'NONE', #218, #327, #203, .T. ) ;
#137 = CIRCLE ( 'NONE', #144, 3.199999999999986855 ) ;
#138 = DIRECTION ( 'NONE',  ( 0.000000000000000000, 1.000000000000000000, 0.000000000000000000 ) ) ;
#139 = ORIENTED_EDGE ( 'NONE', *, *, #93, .F. ) ;
#140 = DIRECTION ( 'NONE',  ( -3.491481338843133355E-15, 1.224646799147341374E-16, -1.000000000000000000 ) ) ;
#141 = EDGE_LOOP ( 'NONE', ( #179, #302, #10, #87 ) ) ;
#142 = ORIENTED_EDGE ( 'NONE', *, *, #281, .F. ) ;
#143 = EDGE_CURVE ( 'NONE', #176, #85, #50, .T. ) ;
#144 = AXIS2_PLACEMENT_3D ( 'NONE', #318, #217, #215 ) ;
#145 = EDGE_LOOP ( 'NONE', ( #116, #295 ) ) ;
#146 = ORIENTED_EDGE ( 'NONE', *, *, #157, .T. ) ;
#147 = DIRECTION ( 'NONE',  ( 3.491481338843133355E-15, -1.224646799147353207E-16, 1.000000000000000000 ) ) ;
#148 = CARTESIAN_POINT ( 'NONE',  ( 0.000000000000000000, 0.000000000000000000, 0.000000000000000000 ) ) ;
#149 =( NAMED_UNIT ( * ) PLANE_ANGLE_UNIT ( ) SI_UNIT ( $, .RADIAN. ) );
#150 = AXIS2_PLACEMENT_3D ( 'NONE', #310, #337, #153 ) ;
#151 = CARTESIAN_POINT ( 'NONE',  ( 6.769475125839351903E-14, 3.949999999999998845, 19.25000000000000000 ) ) ;
#152 = MECHANICAL_DESIGN_GEOMETRIC_PRESENTATION_REPRESENTATION (  '', ( #299 ), #342 ) ;
#153 = DIRECTION ( 'NONE',  ( 0.000000000000000000, 1.000000000000000000, 0.000000000000000000 ) ) ;
#154 = FILL_AREA_STYLE ('',( #186 ) ) ;
#155 = CARTESIAN_POINT ( 'NONE',  ( -3.949999999999931788, 4.837354856632043085E-16, 19.25000000000001421 ) ) ;
#156 = DIRECTION ( 'NONE',  ( 0.000000000000000000, 1.000000000000000000, 0.000000000000000000 ) ) ;
#157 = EDGE_CURVE ( 'NONE', #7, #205, #185, .T. ) ;
#158 = DIRECTION ( 'NONE',  ( -3.491481338843133355E-15, 1.224646799147353207E-16, -1.000000000000000000 ) ) ;
#159 = AXIS2_PLACEMENT_3D ( 'NONE', #70, #127, #21 ) ;
#160 = AXIS2_PLACEMENT_3D ( 'NONE', #206, #147, #167 ) ;
#161 = SURFACE_STYLE_FILL_AREA ( #334 ) ;
#162 = SURFACE_SIDE_STYLE ('',( #291 ) ) ;
#163 = AXIS2_PLACEMENT_3D ( 'NONE', #40, #97, #92 ) ;
#164 = PRODUCT_DEFINITION_FORMATION_WITH_SPECIFIED_SOURCE ( 'ANY', '', #84, .NOT_KNOWN. ) ;
#165 = MANIFOLD_SOLID_BREP ( 'Corps-Déplacer/Copier1[2]', #266 ) ;
#166 = MANIFOLD_SOLID_BREP ( 'Corps-Déplacer/Copier1[1]', #109 ) ;
#167 = DIRECTION ( 'NONE',  ( 0.000000000000000000, -1.000000000000000000, 0.000000000000000000 ) ) ;
#168 = ADVANCED_FACE ( 'NONE', ( #336 ), #79, .T. ) ;
#169 = DIRECTION ( 'NONE',  ( 3.491481338843133355E-15, -1.224646799147353207E-16, 1.000000000000000000 ) ) ;
#170 = COLOUR_RGB ( '',1.000000000000000000, 1.000000000000000000, 1.000000000000000000 ) ;
#171 = AXIS2_PLACEMENT_3D ( 'NONE', #183, #3, #138 ) ;
#172 = DIRECTION ( 'NONE',  ( 1.000000000000000000, 0.000000000000000000, -3.513364001978344456E-15 ) ) ;
#173 = VERTEX_POINT ( 'NONE', #155 ) ;
#174 = UNCERTAINTY_MEASURE_WITH_UNIT (LENGTH_MEASURE( 1.000000000000000082E-05 ), #224, 'distance_accuracy_value', 'NONE');
#175 = ORIENTED_EDGE ( 'NONE', *, *, #243, .T. ) ;
#176 = VERTEX_POINT ( 'NONE', #317 ) ;
#177 = AXIS2_PLACEMENT_3D ( 'NONE', #264, #257, #156 ) ;
#178 = AXIS2_PLACEMENT_3D ( 'NONE', #88, #329, #58 ) ;
#179 = ORIENTED_EDGE ( 'NONE', *, *, #143, .F. ) ;
#180 = DIRECTION ( 'NONE',  ( -1.865174681370262988E-14, -1.000000000000000000, 0.000000000000000000 ) ) ;
#181 = UNCERTAINTY_MEASURE_WITH_UNIT (LENGTH_MEASURE( 1.000000000000000082E-05 ), #74, 'distance_accuracy_value', 'NONE');
#182 = CARTESIAN_POINT ( 'NONE',  ( 2.171701392760428316E-13, -7.617303090696535366E-15, 62.19999999999998153 ) ) ;
#183 = CARTESIAN_POINT ( 'NONE',  ( 6.769669573857244863E-14, -2.374480448363633282E-15, 19.38910427085457400 ) ) ;
#184 = DIRECTION ( 'NONE',  ( 3.491481338843133355E-15, -0.000000000000000000, 1.000000000000000000 ) ) ;
#185 = LINE ( 'NONE', #285, #122 ) ;
#186 = FILL_AREA_STYLE_COLOUR ( '', #106 ) ;
#187 = ADVANCED_FACE ( 'NONE', ( #104 ), #107, .T. ) ;
#188 = PLANE ( 'NONE',  #220 ) ;
#189 = PRODUCT_DEFINITION ( 'UNKNOWN', '', #164, #11 ) ;
#190 = FILL_AREA_STYLE ('',( #77 ) ) ;
#191 = COLOUR_RGB ( '',1.000000000000000000, 1.000000000000000000, 1.000000000000000000 ) ;
#192 = AXIS2_PLACEMENT_3D ( 'NONE', #260, #256, #120 ) ;
#193 = DIRECTION ( 'NONE',  ( -3.491481338843133355E-15, 1.224646799147353207E-16, -1.000000000000000000 ) ) ;
#194 = PRESENTATION_LAYER_ASSIGNMENT (  '', '', ( #299 ) ) ;
#195 = EDGE_CURVE ( 'NONE', #7, #330, #137, .T. ) ;
#196 = PLANE ( 'NONE',  #110 ) ;
#197 = CARTESIAN_POINT ( 'NONE',  ( 6.721101577273031393E-14, 0.000000000000000000, 19.25000000000000000 ) ) ;
#198 = EDGE_CURVE ( 'NONE', #108, #229, #252, .T. ) ;
#199 = VECTOR ( 'NONE', #273, 1000.000000000000000 ) ;
#200 = CARTESIAN_POINT ( 'NONE',  ( -3.949999999999932676, 4.837354856632044071E-16, 19.25000000000001421 ) ) ;
#201 = EDGE_LOOP ( 'NONE', ( #113, #8, #282, #63 ) ) ;
#202 = ORIENTED_EDGE ( 'NONE', *, *, #293, .T. ) ;
#203 = CIRCLE ( 'NONE', #15, 3.950000000000000178 ) ;
#204 = CARTESIAN_POINT ( 'NONE',  ( -3.950000000000000178, 4.837354856632087459E-16, 1.379135128843037991E-14 ) ) ;
#205 = VERTEX_POINT ( 'NONE', #101 ) ;
#206 = CARTESIAN_POINT ( 'NONE',  ( 6.721101577273031393E-14, -2.357445088358654757E-15, 19.25000000000000000 ) ) ;
#207 = DIRECTION ( 'NONE',  ( -3.491481338843133355E-15, 1.224646799147353207E-16, -1.000000000000000000 ) ) ;
#208 =( NAMED_UNIT ( * ) SI_UNIT ( $, .STERADIAN. ) SOLID_ANGLE_UNIT ( ) );
#209 = DIRECTION ( 'NONE',  ( 1.000000000000000000, 0.000000000000000000, -3.491481338843133355E-15 ) ) ;
#210 = VECTOR ( 'NONE', #283, 1000.000000000000000 ) ;
#211 = PLANE ( 'NONE',  #311 ) ;
#212 = AXIS2_PLACEMENT_3D ( 'NONE', #296, #277, #80 ) ;
#213 =( NAMED_UNIT ( * ) PLANE_ANGLE_UNIT ( ) SI_UNIT ( $, .RADIAN. ) );
#214 = CARTESIAN_POINT ( 'NONE',  ( 1.429232762269665681E-13, -3.999999999999998224, 19.38910427085457400 ) ) ;
#215 = DIRECTION ( 'NONE',  ( 0.000000000000000000, -1.000000000000000000, 0.000000000000000000 ) ) ;
#216 = AXIS2_PLACEMENT_3D ( 'NONE', #308, #259, #66 ) ;
#217 = DIRECTION ( 'NONE',  ( 3.491481338843133355E-15, -1.224646799147353207E-16, 1.000000000000000000 ) ) ;
#218 = VERTEX_POINT ( 'NONE', #27 ) ;
#219 = EDGE_LOOP ( 'NONE', ( #175, #36 ) ) ;
#220 = AXIS2_PLACEMENT_3D ( 'NONE', #235, #129, #124 ) ;
#221 =( GEOMETRIC_REPRESENTATION_CONTEXT ( 3 ) GLOBAL_UNCERTAINTY_ASSIGNED_CONTEXT ( ( #174 ) ) GLOBAL_UNIT_ASSIGNED_CONTEXT ( ( #224, #149, #208 ) ) REPRESENTATION_CONTEXT ( 'NONE', 'WORKASPACE' ) );
#222 = EDGE_LOOP ( 'NONE', ( #202, #328 ) ) ;
#223 = DIRECTION ( 'NONE',  ( 3.491481338843133355E-15, -0.000000000000000000, 1.000000000000000000 ) ) ;
#224 =( LENGTH_UNIT ( ) NAMED_UNIT ( * ) SI_UNIT ( .MILLI., .METRE. ) );
#225 = EDGE_LOOP ( 'NONE', ( #307, #303, #135, #61 ) ) ;
#226 = ORIENTED_EDGE ( 'NONE', *, *, #254, .T. ) ;
#227 = ORIENTED_EDGE ( 'NONE', *, *, #198, .F. ) ;
#228 = AXIS2_PLACEMENT_3D ( 'NONE', #231, #64, #172 ) ;
#229 = VERTEX_POINT ( 'NONE', #289 ) ;
#230 = ORIENTED_EDGE ( 'NONE', *, *, #195, .F. ) ;
#231 = CARTESIAN_POINT ( 'NONE',  ( 6.721101577273031393E-14, 0.000000000000000000, 19.25000000000000000 ) ) ;
#232 = ORIENTED_EDGE ( 'NONE', *, *, #102, .T. ) ;
#233 = ADVANCED_FACE ( 'NONE', ( #47 ), #263, .T. ) ;
#234 = AXIS2_PLACEMENT_3D ( 'NONE', #99, #292, #322 ) ;
#235 = CARTESIAN_POINT ( 'NONE',  ( 6.721101577273031393E-14, 3.949999999999998845, 19.25000000000000000 ) ) ;
#236 = CARTESIAN_POINT ( 'NONE',  ( 6.745385575565137497E-14, -3.950000000000003730, 19.25000000000000000 ) ) ;
#237 = CYLINDRICAL_SURFACE ( 'NONE', #163, 3.999999999999998224 ) ;
#238 =( NAMED_UNIT ( * ) SI_UNIT ( $, .STERADIAN. ) SOLID_ANGLE_UNIT ( ) );
#239 = AXIS2_PLACEMENT_3D ( 'NONE', #182, #250, #325 ) ;
#240 = DIRECTION ( 'NONE',  ( 3.327098416510789582E-15, 0.3382550599108808398, 0.9410544694355830186 ) ) ;
#241 = SURFACE_SIDE_STYLE ('',( #161 ) ) ;
#242 = DIRECTION ( 'NONE',  ( 4.275831445896958607E-31, 1.000000000000000000, 1.224646799147353207E-16 ) ) ;
#243 = EDGE_CURVE ( 'NONE', #85, #176, #16, .T. ) ;
#244 = FACE_OUTER_BOUND ( 'NONE', #225, .T. ) ;
#245 = STYLED_ITEM ( 'NONE', ( #71 ), #165 ) ;
#246 = CARTESIAN_POINT ( 'NONE',  ( 6.721101577273031393E-14, -3.950000000000003730, 19.25000000000000000 ) ) ;
#247 = ORIENTED_EDGE ( 'NONE', *, *, #335, .F. ) ;
#248 = CYLINDRICAL_SURFACE ( 'NONE', #132, 3.949999999999999734 ) ;
#249 = ORIENTED_EDGE ( 'NONE', *, *, #198, .T. ) ;
#250 = DIRECTION ( 'NONE',  ( -3.491481338843133355E-15, 1.224646799147341374E-16, -1.000000000000000000 ) ) ;
#251 =( GEOMETRIC_REPRESENTATION_CONTEXT ( 3 ) GLOBAL_UNCERTAINTY_ASSIGNED_CONTEXT ( ( #103 ) ) GLOBAL_UNIT_ASSIGNED_CONTEXT ( ( #96, #213, #52 ) ) REPRESENTATION_CONTEXT ( 'NONE', 'WORKASPACE' ) );
#252 = CIRCLE ( 'NONE', #305, 3.999999999999995559 ) ;
#253 = EDGE_LOOP ( 'NONE', ( #300, #12 ) ) ;
#254 = EDGE_CURVE ( 'NONE', #330, #326, #284, .T. ) ;
#255 = VERTEX_POINT ( 'NONE', #17 ) ;
#256 = DIRECTION ( 'NONE',  ( 3.491481338843133355E-15, -0.000000000000000000, 1.000000000000000000 ) ) ;
#257 = DIRECTION ( 'NONE',  ( -3.491481338843133355E-15, 1.224646799147341374E-16, -1.000000000000000000 ) ) ;
#258 = AXIS2_PLACEMENT_3D ( 'NONE', #197, #114, #33 ) ;
#259 = DIRECTION ( 'NONE',  ( -3.491481338843133355E-15, 1.224646799147353207E-16, -1.000000000000000000 ) ) ;
#260 = CARTESIAN_POINT ( 'NONE',  ( 6.721101577273031393E-14, 0.000000000000000000, 19.25000000000000000 ) ) ;
#261 = CARTESIAN_POINT ( 'NONE',  ( 2.137915722948479303E-31, 3.950000000000000178, 6.123233995736767268E-17 ) ) ;
#262 = SURFACE_STYLE_USAGE ( .BOTH. , #316 ) ;
#263 = CYLINDRICAL_SURFACE ( 'NONE', #192, 3.949999999999999734 ) ;
#264 = CARTESIAN_POINT ( 'NONE',  ( 2.171701392760428316E-13, -7.617303090696535366E-15, 62.19999999999998153 ) ) ;
#265 = SURFACE_STYLE_FILL_AREA ( #154 ) ;
#266 = CLOSED_SHELL ( 'NONE', ( #233, #267, #75, #55 ) ) ;
#267 = ADVANCED_FACE ( 'NONE', ( #244 ), #248, .T. ) ;
#268 = CARTESIAN_POINT ( 'NONE',  ( 6.769669573857244863E-14, -2.374480448363633282E-15, 19.38910427085457400 ) ) ;
#269 = ORIENTED_EDGE ( 'NONE', *, *, #243, .F. ) ;
#270 = AXIS2_PLACEMENT_3D ( 'NONE', #19, #333, #290 ) ;
#271 = PRODUCT_DEFINITION_SHAPE ( 'NONE', 'NONE',  #189 ) ;
#272 = CARTESIAN_POINT ( 'NONE',  ( 2.199633243471174140E-13, -7.715274834628325378E-15, 63.00000000000000000 ) ) ;
#273 = DIRECTION ( 'NONE',  ( 3.491481338843133355E-15, -0.000000000000000000, 1.000000000000000000 ) ) ;
#274 = PRESENTATION_LAYER_ASSIGNMENT (  '', '', ( #298 ) ) ;
#275 = VECTOR ( 'NONE', #111, 1000.000000000000000 ) ;
#276 = ORIENTED_EDGE ( 'NONE', *, *, #335, .T. ) ;
#277 = DIRECTION ( 'NONE',  ( -3.491481338843133355E-15, 1.224646799147353207E-16, -1.000000000000000000 ) ) ;
#278 = ORIENTED_EDGE ( 'NONE', *, *, #254, .F. ) ;
#279 = EDGE_LOOP ( 'NONE', ( #118, #35, #81, #142 ) ) ;
#280 = ORIENTED_EDGE ( 'NONE', *, *, #314, .F. ) ;
#281 = EDGE_CURVE ( 'NONE', #218, #255, #34, .T. ) ;
#282 = ORIENTED_EDGE ( 'NONE', *, *, #338, .F. ) ;
#283 = DIRECTION ( 'NONE',  ( 3.491481338843133355E-15, -0.000000000000000000, 1.000000000000000000 ) ) ;
#284 = LINE ( 'NONE', #323, #275 ) ;
#285 = CARTESIAN_POINT ( 'NONE',  ( 2.176599979957017722E-13, -4.000000000000006217, 62.19999999999998153 ) ) ;
#286 = PRESENTATION_STYLE_ASSIGNMENT (( #262 ) ) ;
#287 =( GEOMETRIC_REPRESENTATION_CONTEXT ( 3 ) GLOBAL_UNCERTAINTY_ASSIGNED_CONTEXT ( ( #82 ) ) GLOBAL_UNIT_ASSIGNED_CONTEXT ( ( #25, #78, #238 ) ) REPRESENTATION_CONTEXT ( 'NONE', 'WORKASPACE' ) );
#288 = FACE_OUTER_BOUND ( 'NONE', #60, .T. ) ;
#289 = CARTESIAN_POINT ( 'NONE',  ( 6.769669573857244863E-14, 3.999999999999993339, 19.38910427085457400 ) ) ;
#290 = DIRECTION ( 'NONE',  ( 1.953992523340275827E-14, -1.000000000000000000, 0.000000000000000000 ) ) ;
#291 = SURFACE_STYLE_FILL_AREA ( #190 ) ;
#292 = DIRECTION ( 'NONE',  ( 3.491481338843133355E-15, -1.224646799147353207E-16, 1.000000000000000000 ) ) ;
#293 = EDGE_CURVE ( 'NONE', #255, #173, #51, .T. ) ;
#294 = DIRECTION ( 'NONE',  ( 0.000000000000000000, 1.000000000000000000, 0.000000000000000000 ) ) ;
#295 = ORIENTED_EDGE ( 'NONE', *, *, #195, .T. ) ;
#296 = CARTESIAN_POINT ( 'NONE',  ( 6.721101577273031393E-14, 3.949999999999998845, 19.25000000000000000 ) ) ;
#297 = ORIENTED_EDGE ( 'NONE', *, *, #157, .F. ) ;
#298 = STYLED_ITEM ( 'NONE', ( #340 ), #166 ) ;
#299 = STYLED_ITEM ( 'NONE', ( #286 ), #57 ) ;
#300 = ORIENTED_EDGE ( 'NONE', *, *, #136, .F. ) ;
#301 = ADVANCED_FACE ( 'NONE', ( #42 ), #332, .T. ) ;
#302 = ORIENTED_EDGE ( 'NONE', *, *, #119, .T. ) ;
#303 = ORIENTED_EDGE ( 'NONE', *, *, #86, .T. ) ;
#304 = CIRCLE ( 'NONE', #258, 3.949999999999998845 ) ;
#305 = AXIS2_PLACEMENT_3D ( 'NONE', #268, #193, #294 ) ;
#306 = CARTESIAN_POINT ( 'NONE',  ( 1.424334175073076527E-13, 3.999999999999990674, 62.19999999999998153 ) ) ;
#307 = ORIENTED_EDGE ( 'NONE', *, *, #41, .F. ) ;
#308 = CARTESIAN_POINT ( 'NONE',  ( 6.721101577273031393E-14, -2.357445088358654757E-15, 19.25000000000000000 ) ) ;
#309 = CARTESIAN_POINT ( 'NONE',  ( 4.898587196589394093E-16, -3.999999999999998224, -4.898587196589427620E-16 ) ) ;
#310 = CARTESIAN_POINT ( 'NONE',  ( 6.721101577273031393E-14, -2.357445088358654757E-15, 19.25000000000000000 ) ) ;
#311 = AXIS2_PLACEMENT_3D ( 'NONE', #261, #23, #72 ) ;
#312 = FACE_OUTER_BOUND ( 'NONE', #65, .T. ) ;
#313 = SHAPE_DEFINITION_REPRESENTATION ( #271, #57 ) ;
#314 = EDGE_CURVE ( 'NONE', #330, #7, #44, .T. ) ;
#315 = EDGE_CURVE ( 'NONE', #85, #108, #32, .T. ) ;
#316 = SURFACE_SIDE_STYLE ('',( #265 ) ) ;
#317 = CARTESIAN_POINT ( 'NONE',  ( 6.794065285831246675E-14, 3.949999999999998845, 19.25000000000000000 ) ) ;
#318 = CARTESIAN_POINT ( 'NONE',  ( 2.199633243471174140E-13, -7.715274834628325378E-15, 63.00000000000000000 ) ) ;
#319 = VECTOR ( 'NONE', #240, 999.9999999999998863 ) ;
#320 = CIRCLE ( 'NONE', #90, 3.999999999999998224 ) ;
#321 = ADVANCED_FACE ( 'NONE', ( #39 ), #196, .T. ) ;
#322 = DIRECTION ( 'NONE',  ( 0.000000000000000000, -1.000000000000000000, 0.000000000000000000 ) ) ;
#323 = CARTESIAN_POINT ( 'NONE',  ( 2.171701392760428316E-13, 3.999999999999990674, 62.19999999999998153 ) ) ;
#324 = ADVANCED_FACE ( 'NONE', ( #91 ), #54, .T. ) ;
#325 = DIRECTION ( 'NONE',  ( 0.000000000000000000, 1.000000000000000000, 0.000000000000000000 ) ) ;
#326 = VERTEX_POINT ( 'NONE', #306 ) ;
#327 = VERTEX_POINT ( 'NONE', #204 ) ;
#328 = ORIENTED_EDGE ( 'NONE', *, *, #29, .T. ) ;
#329 = DIRECTION ( 'NONE',  ( 3.491481338843133355E-15, -1.224646799147353207E-16, 1.000000000000000000 ) ) ;
#330 = VERTEX_POINT ( 'NONE', #133 ) ;
#331 = LINE ( 'NONE', #151, #319 ) ;
#332 = PLANE ( 'NONE',  #212 ) ;
#333 = DIRECTION ( 'NONE',  ( -3.491481338843133355E-15, 1.224646799147341374E-16, -1.000000000000000000 ) ) ;
#334 = FILL_AREA_STYLE ('',( #18 ) ) ;
#335 = EDGE_CURVE ( 'NONE', #205, #326, #320, .T. ) ;
#336 = FACE_OUTER_BOUND ( 'NONE', #38, .T. ) ;
#337 = DIRECTION ( 'NONE',  ( -3.491481338843133355E-15, 1.224646799147353207E-16, -1.000000000000000000 ) ) ;
#338 = EDGE_CURVE ( 'NONE', #229, #108, #2, .T. ) ;
#339 = APPLICATION_PROTOCOL_DEFINITION ( 'draft international standard', 'automotive_design', 1998, #73 ) ;
#340 = PRESENTATION_STYLE_ASSIGNMENT (( #128 ) ) ;
#341 = MECHANICAL_DESIGN_GEOMETRIC_PRESENTATION_REPRESENTATION (  '', ( #298 ), #287 ) ;
#342 =( GEOMETRIC_REPRESENTATION_CONTEXT ( 3 ) GLOBAL_UNCERTAINTY_ASSIGNED_CONTEXT ( ( #181 ) ) GLOBAL_UNIT_ASSIGNED_CONTEXT ( ( #74, #125, #98 ) ) REPRESENTATION_CONTEXT ( 'NONE', 'WORKASPACE' ) );
#343 = ORIENTED_EDGE ( 'NONE', *, *, #117, .F. ) ;
ENDSEC;
END-ISO-10303-21;
