ISO-10303-21;
HEADER;
FILE_DESCRIPTION (( 'STEP AP214' ),
    '1' );
FILE_NAME ('67456.step',
    '2024-04-04T13:00:13',
    ( '' ),
    ( '' ),
    'SwSTEP 2.0',
    'SolidWorks 2022',
    '' );
FILE_SCHEMA (( 'AUTOMOTIVE_DESIGN' ));
ENDSEC;

DATA;
#1 = CARTESIAN_POINT ( 'NONE',  ( 2.950000000000052136, 0.000000000000000000, 14.99999999999998934 ) ) ;
#2 = ORIENTED_EDGE ( 'NONE', *, *, #284, .F. ) ;
#3 = CARTESIAN_POINT ( 'NONE',  ( 5.237222008264700033E-14, -1.836970198721029589E-15, 15.00000000000000000 ) ) ;
#4 = ORIENTED_EDGE ( 'NONE', *, *, #192, .F. ) ;
#5 = AXIS2_PLACEMENT_3D ( 'NONE', #3, #214, #140 ) ;
#6 = CARTESIAN_POINT ( 'NONE',  ( 5.285790004848911609E-14, -1.854005558726007719E-15, 15.13910427085457222 ) ) ;
#7 = AXIS2_PLACEMENT_3D ( 'NONE', #286, #166, #115 ) ;
#8 = PRODUCT_DEFINITION ( 'UNKNOWN', '', #314, #224 ) ;
#9 = FACE_OUTER_BOUND ( 'NONE', #178, .T. ) ;
#10 = EDGE_CURVE ( 'NONE', #221, #119, #145, .T. ) ;
#11 = AXIS2_PLACEMENT_3D ( 'NONE', #231, #110, #180 ) ;
#12 = CARTESIAN_POINT ( 'NONE',  ( 0.000000000000000000, 0.000000000000000000, 0.000000000000000000 ) ) ;
#13 = DIRECTION ( 'NONE',  ( 3.491481338843133355E-15, -0.000000000000000000, 1.000000000000000000 ) ) ;
#14 = UNCERTAINTY_MEASURE_WITH_UNIT (LENGTH_MEASURE( 1.000000000000000082E-05 ), #259, 'distance_accuracy_value', 'NONE');
#15 = DIRECTION ( 'NONE',  ( 4.275831445896958607E-31, 1.000000000000000000, 1.224646799147353207E-16 ) ) ;
#16 = ORIENTED_EDGE ( 'NONE', *, *, #106, .T. ) ;
#17 = COLOUR_RGB ( '',1.000000000000000000, 1.000000000000000000, 1.000000000000000000 ) ;
#18 = CARTESIAN_POINT ( 'NONE',  ( 1.990144363140586139E-13, -6.980486755139912911E-15, 57.00000000000000000 ) ) ;
#19 = VECTOR ( 'NONE', #265, 1000.000000000000000 ) ;
#20 = VERTEX_POINT ( 'NONE', #193 ) ;
#21 = FILL_AREA_STYLE ('',( #50 ) ) ;
#22 = MECHANICAL_DESIGN_GEOMETRIC_PRESENTATION_REPRESENTATION (  '', ( #308 ), #104 ) ;
#23 =( NAMED_UNIT ( * ) SI_UNIT ( $, .STERADIAN. ) SOLID_ANGLE_UNIT ( ) );
#24 = DIRECTION ( 'NONE',  ( 0.000000000000000000, 1.000000000000000000, 0.000000000000000000 ) ) ;
#25 = EDGE_CURVE ( 'NONE', #209, #195, #331, .T. ) ;
#26 = MECHANICAL_DESIGN_GEOMETRIC_PRESENTATION_REPRESENTATION (  '', ( #58 ), #210 ) ;
#27 = DIRECTION ( 'NONE',  ( -1.000000000000000000, 0.000000000000000000, 3.491481338843133355E-15 ) ) ;
#28 = AXIS2_PLACEMENT_3D ( 'NONE', #274, #252, #75 ) ;
#29 = CIRCLE ( 'NONE', #7, 2.999999999999994671 ) ;
#30 = EDGE_LOOP ( 'NONE', ( #74, #143, #152, #100 ) ) ;
#31 = APPLICATION_CONTEXT ( 'automotive_design' ) ;
#32 = CARTESIAN_POINT ( 'NONE',  ( 5.237222008264700033E-14, 2.949999999999998845, 15.00000000000000000 ) ) ;
#33 = ORIENTED_EDGE ( 'NONE', *, *, #233, .T. ) ;
#34 = CARTESIAN_POINT ( 'NONE',  ( 1.969195475107526960E-13, -6.907007947191071191E-15, 56.39999999999999147 ) ) ;
#35 = CARTESIAN_POINT ( 'NONE',  ( 1.969195475107526960E-13, -6.907007947191071191E-15, 56.39999999999999147 ) ) ;
#36 = AXIS2_PLACEMENT_3D ( 'NONE', #131, #84, #185 ) ;
#37 = DIRECTION ( 'NONE',  ( 4.275831445896958607E-31, 1.000000000000000000, 1.224646799147353454E-16 ) ) ;
#38 = ADVANCED_FACE ( 'NONE', ( #323 ), #93, .F. ) ;
#39 = AXIS2_PLACEMENT_3D ( 'NONE', #18, #181, #333 ) ;
#40 = FACE_OUTER_BOUND ( 'NONE', #95, .T. ) ;
#41 = VECTOR ( 'NONE', #66, 1000.000000000000000 ) ;
#42 = VECTOR ( 'NONE', #325, 1000.000000000000114 ) ;
#43 = EDGE_LOOP ( 'NONE', ( #125, #96, #4, #141 ) ) ;
#44 = LINE ( 'NONE', #329, #171 ) ;
#45 = ORIENTED_EDGE ( 'NONE', *, *, #341, .F. ) ;
#46 = ORIENTED_EDGE ( 'NONE', *, *, #147, .F. ) ;
#47 =( GEOMETRIC_REPRESENTATION_CONTEXT ( 3 ) GLOBAL_UNCERTAINTY_ASSIGNED_CONTEXT ( ( #146 ) ) GLOBAL_UNIT_ASSIGNED_CONTEXT ( ( #202, #157, #23 ) ) REPRESENTATION_CONTEXT ( 'NONE', 'WORKASPACE' ) );
#48 = MECHANICAL_DESIGN_GEOMETRIC_PRESENTATION_REPRESENTATION (  '', ( #285 ), #230 ) ;
#49 = CARTESIAN_POINT ( 'NONE',  ( 1.990144363140586139E-13, -6.980486755139912911E-15, 57.00000000000000000 ) ) ;
#50 = FILL_AREA_STYLE_COLOUR ( '', #89 ) ;
#51 = FILL_AREA_STYLE_COLOUR ( '', #160 ) ;
#52 = DIRECTION ( 'NONE',  ( -3.491481338843133355E-15, 1.224646799147353207E-16, -1.000000000000000000 ) ) ;
#53 = CARTESIAN_POINT ( 'NONE',  ( 0.000000000000000000, 0.000000000000000000, 0.000000000000000000 ) ) ;
#54 = ADVANCED_FACE ( 'NONE', ( #9 ), #116, .T. ) ;
#55 = CARTESIAN_POINT ( 'NONE',  ( 1.969195475107526960E-13, 2.999999999999991562, 56.39999999999999147 ) ) ;
#56 = CIRCLE ( 'NONE', #315, 2.950000000000000178 ) ;
#57 =( NAMED_UNIT ( * ) PLANE_ANGLE_UNIT ( ) SI_UNIT ( $, .RADIAN. ) );
#58 = STYLED_ITEM ( 'NONE', ( #183 ), #83 ) ;
#59 = VECTOR ( 'NONE', #81, 1000.000000000000000 ) ;
#60 = ADVANCED_BREP_SHAPE_REPRESENTATION ( '67456', ( #83, #301, #36 ), #47 ) ;
#61 = CONICAL_SURFACE ( 'NONE', #319, 2.999999999999998224, 0.7853981633974388421 ) ;
#62 = DIRECTION ( 'NONE',  ( -3.491481338843133355E-15, 1.224646799147353207E-16, -1.000000000000000000 ) ) ;
#63 = FACE_OUTER_BOUND ( 'NONE', #112, .T. ) ;
#64 = DIRECTION ( 'NONE',  ( -3.491481338843133355E-15, 1.224646799147353207E-16, -1.000000000000000000 ) ) ;
#65 = ADVANCED_FACE ( 'NONE', ( #292 ), #297, .T. ) ;
#66 = DIRECTION ( 'NONE',  ( 3.491481338843133355E-15, -0.000000000000000000, 1.000000000000000000 ) ) ;
#67 = CARTESIAN_POINT ( 'NONE',  ( 5.237222008264700033E-14, -1.836970198721029589E-15, 15.00000000000000000 ) ) ;
#68 = UNCERTAINTY_MEASURE_WITH_UNIT (LENGTH_MEASURE( 1.000000000000000082E-05 ), #306, 'distance_accuracy_value', 'NONE');
#69 = DIRECTION ( 'NONE',  ( 1.000000000000000000, 0.000000000000000000, -3.528251137579948177E-15 ) ) ;
#70 = VERTEX_POINT ( 'NONE', #235 ) ;
#71 = CYLINDRICAL_SURFACE ( 'NONE', #283, 2.949999999999999289 ) ;
#72 = ORIENTED_EDGE ( 'NONE', *, *, #341, .T. ) ;
#73 = CARTESIAN_POINT ( 'NONE',  ( 1.282749433769086881E-30, 2.999999999999998224, 3.673940397442057896E-16 ) ) ;
#74 = ORIENTED_EDGE ( 'NONE', *, *, #121, .F. ) ;
#75 = DIRECTION ( 'NONE',  ( 1.000000000000000000, 0.000000000000000000, -3.528251137579948177E-15 ) ) ;
#76 = FACE_OUTER_BOUND ( 'NONE', #251, .T. ) ;
#77 = PRODUCT_RELATED_PRODUCT_CATEGORY ( 'part', '', ( #215 ) ) ;
#78 = DIRECTION ( 'NONE',  ( 1.000000000000000000, 0.000000000000000000, -3.528251137579947388E-15 ) ) ;
#79 = AXIS2_PLACEMENT_3D ( 'NONE', #182, #154, #304 ) ;
#80 = ADVANCED_FACE ( 'NONE', ( #76 ), #337, .F. ) ;
#81 = DIRECTION ( 'NONE',  ( -2.468850131082288221E-15, 0.7071067811865410224, -0.7071067811865540120 ) ) ;
#82 = CIRCLE ( 'NONE', #117, 2.950000000000000622 ) ;
#83 = MANIFOLD_SOLID_BREP ( 'Corps-Déplacer/Copier1[1]', #336 ) ;
#84 = DIRECTION ( 'NONE',  ( 0.000000000000000000, 0.000000000000000000, 1.000000000000000000 ) ) ;
#85 = AXIS2_PLACEMENT_3D ( 'NONE', #300, #13, #240 ) ;
#86 = EDGE_CURVE ( 'NONE', #119, #177, #220, .T. ) ;
#87 = EDGE_LOOP ( 'NONE', ( #33, #248 ) ) ;
#88 = DIRECTION ( 'NONE',  ( -3.491481338843133355E-15, 1.224646799147353207E-16, -1.000000000000000000 ) ) ;
#89 = COLOUR_RGB ( '',1.000000000000000000, 1.000000000000000000, 1.000000000000000000 ) ;
#90 = ORIENTED_EDGE ( 'NONE', *, *, #106, .F. ) ;
#91 = AXIS2_PLACEMENT_3D ( 'NONE', #32, #62, #15 ) ;
#92 = LINE ( 'NONE', #170, #250 ) ;
#93 = PLANE ( 'NONE',  #85 ) ;
#94 = CARTESIAN_POINT ( 'NONE',  ( 5.237222008264700033E-14, 0.000000000000000000, 15.00000000000000000 ) ) ;
#95 = EDGE_LOOP ( 'NONE', ( #46, #266, #137, #226 ) ) ;
#96 = ORIENTED_EDGE ( 'NONE', *, *, #284, .T. ) ;
#97 = DIRECTION ( 'NONE',  ( 0.000000000000000000, -1.000000000000000000, 0.000000000000000000 ) ) ;
#98 = VERTEX_POINT ( 'NONE', #207 ) ;
#99 = FACE_OUTER_BOUND ( 'NONE', #149, .T. ) ;
#100 = ORIENTED_EDGE ( 'NONE', *, *, #25, .F. ) ;
#101 = CARTESIAN_POINT ( 'NONE',  ( 5.237222008264700033E-14, -2.950000000000002398, 15.00000000000000000 ) ) ;
#102 = EDGE_CURVE ( 'NONE', #123, #70, #260, .T. ) ;
#103 = CARTESIAN_POINT ( 'NONE',  ( 5.237222008264700033E-14, -1.836970198721029589E-15, 15.00000000000000000 ) ) ;
#104 =( GEOMETRIC_REPRESENTATION_CONTEXT ( 3 ) GLOBAL_UNCERTAINTY_ASSIGNED_CONTEXT ( ( #14 ) ) GLOBAL_UNIT_ASSIGNED_CONTEXT ( ( #259, #57, #161 ) ) REPRESENTATION_CONTEXT ( 'NONE', 'WORKASPACE' ) );
#105 = CIRCLE ( 'NONE', #186, 2.949999999999998845 ) ;
#106 = EDGE_CURVE ( 'NONE', #98, #177, #309, .T. ) ;
#107 = VECTOR ( 'NONE', #246, 1000.000000000000114 ) ;
#108 = AXIS2_PLACEMENT_3D ( 'NONE', #217, #64, #37 ) ;
#109 = FILL_AREA_STYLE ('',( #51 ) ) ;
#110 = DIRECTION ( 'NONE',  ( 3.491481338843133355E-15, -1.224646799147353207E-16, 1.000000000000000000 ) ) ;
#111 = CONICAL_SURFACE ( 'NONE', #288, 2.999999999999998224, 0.7853981633974388421 ) ;
#112 = EDGE_LOOP ( 'NONE', ( #199, #294, #320, #133 ) ) ;
#113 = EDGE_CURVE ( 'NONE', #221, #98, #165, .T. ) ;
#114 = CARTESIAN_POINT ( 'NONE',  ( 5.261506006556805506E-14, -2.950000000000002398, 15.00000000000000000 ) ) ;
#115 = DIRECTION ( 'NONE',  ( 0.000000000000000000, 1.000000000000000000, 0.000000000000000000 ) ) ;
#116 = CYLINDRICAL_SURFACE ( 'NONE', #108, 2.999999999999998224 ) ;
#117 = AXIS2_PLACEMENT_3D ( 'NONE', #103, #256, #24 ) ;
#118 = PLANE ( 'NONE',  #91 ) ;
#119 = VERTEX_POINT ( 'NONE', #253 ) ;
#120 = AXIS2_PLACEMENT_3D ( 'NONE', #53, #307, #127 ) ;
#121 = EDGE_CURVE ( 'NONE', #135, #209, #82, .T. ) ;
#122 = DIRECTION ( 'NONE',  ( 3.327098416510783665E-15, 0.3382550599108856137, 0.9410544694355811313 ) ) ;
#123 = VERTEX_POINT ( 'NONE', #129 ) ;
#124 = CARTESIAN_POINT ( 'NONE',  ( 1.248887237796209281E-13, 2.999999999999991562, 56.39999999999999147 ) ) ;
#125 = ORIENTED_EDGE ( 'NONE', *, *, #216, .T. ) ;
#126 = ORIENTED_EDGE ( 'NONE', *, *, #86, .F. ) ;
#127 = DIRECTION ( 'NONE',  ( 1.000000000000000000, 0.000000000000000000, -3.491481338843132961E-15 ) ) ;
#128 = CIRCLE ( 'NONE', #5, 2.950000000000000622 ) ;
#129 = CARTESIAN_POINT ( 'NONE',  ( -2.950000000000000178, 3.612708057484724144E-16, 1.029986994958724498E-14 ) ) ;
#130 = DIRECTION ( 'NONE',  ( 3.491481338843133355E-15, -1.224646799147353207E-16, 1.000000000000000000 ) ) ;
#131 = CARTESIAN_POINT ( 'NONE',  ( 0.000000000000000000, 0.000000000000000000, 0.000000000000000000 ) ) ;
#132 = SURFACE_STYLE_USAGE ( .BOTH. , #342 ) ;
#133 = ORIENTED_EDGE ( 'NONE', *, *, #173, .T. ) ;
#134 = ADVANCED_FACE ( 'NONE', ( #206 ), #159, .T. ) ;
#135 = VERTEX_POINT ( 'NONE', #280 ) ;
#136 = DIRECTION ( 'NONE',  ( 3.491481338843133355E-15, -0.000000000000000000, 1.000000000000000000 ) ) ;
#137 = ORIENTED_EDGE ( 'NONE', *, *, #163, .T. ) ;
#138 = CARTESIAN_POINT ( 'NONE',  ( 5.237222008264700033E-14, -1.836970198721029589E-15, 15.00000000000000000 ) ) ;
#139 = EDGE_LOOP ( 'NONE', ( #275, #45, #16, #126 ) ) ;
#140 = DIRECTION ( 'NONE',  ( 0.000000000000000000, 1.000000000000000000, 0.000000000000000000 ) ) ;
#141 = ORIENTED_EDGE ( 'NONE', *, *, #327, .F. ) ;
#142 = VECTOR ( 'NONE', #52, 1000.000000000000000 ) ;
#143 = ORIENTED_EDGE ( 'NONE', *, *, #255, .T. ) ;
#144 = FACE_OUTER_BOUND ( 'NONE', #43, .T. ) ;
#145 = LINE ( 'NONE', #227, #42 ) ;
#146 = UNCERTAINTY_MEASURE_WITH_UNIT (LENGTH_MEASURE( 1.000000000000000082E-05 ), #202, 'distance_accuracy_value', 'NONE');
#147 = EDGE_CURVE ( 'NONE', #123, #20, #247, .T. ) ;
#148 = DIRECTION ( 'NONE',  ( 0.000000000000000000, 1.000000000000000000, 0.000000000000000000 ) ) ;
#149 = EDGE_LOOP ( 'NONE', ( #175, #197, #169, #90 ) ) ;
#150 = FACE_OUTER_BOUND ( 'NONE', #328, .T. ) ;
#151 = AXIS2_PLACEMENT_3D ( 'NONE', #12, #222, #188 ) ;
#152 = ORIENTED_EDGE ( 'NONE', *, *, #192, .T. ) ;
#153 = AXIS2_PLACEMENT_3D ( 'NONE', #6, #88, #148 ) ;
#154 = DIRECTION ( 'NONE',  ( -3.491481338843133750E-15, 1.224646799147345072E-16, -1.000000000000000000 ) ) ;
#155 =( LENGTH_UNIT ( ) NAMED_UNIT ( * ) SI_UNIT ( .MILLI., .METRE. ) );
#156 = SURFACE_STYLE_USAGE ( .BOTH. , #339 ) ;
#157 =( NAMED_UNIT ( * ) PLANE_ANGLE_UNIT ( ) SI_UNIT ( $, .RADIAN. ) );
#158 = SURFACE_STYLE_FILL_AREA ( #109 ) ;
#159 = PLANE ( 'NONE',  #322 ) ;
#160 = COLOUR_RGB ( '',1.000000000000000000, 1.000000000000000000, 1.000000000000000000 ) ;
#161 =( NAMED_UNIT ( * ) SI_UNIT ( $, .STERADIAN. ) SOLID_ANGLE_UNIT ( ) );
#162 = CONICAL_SURFACE ( 'NONE', #213, 2.950000000000000622, 0.3450620389298230672 ) ;
#163 = EDGE_CURVE ( 'NONE', #70, #264, #326, .T. ) ;
#164 = ADVANCED_FACE ( 'NONE', ( #289 ), #111, .T. ) ;
#165 = CIRCLE ( 'NONE', #11, 2.399999999999999467 ) ;
#166 = DIRECTION ( 'NONE',  ( -3.491481338843133355E-15, 1.224646799147353207E-16, -1.000000000000000000 ) ) ;
#167 = PRODUCT_DEFINITION_SHAPE ( 'NONE', 'NONE',  #8 ) ;
#168 = CARTESIAN_POINT ( 'NONE',  ( 1.252561178193650578E-13, -2.999999999999996447, 15.13910427085457222 ) ) ;
#169 = ORIENTED_EDGE ( 'NONE', *, *, #216, .F. ) ;
#170 = CARTESIAN_POINT ( 'NONE',  ( 5.273349088839547028E-14, 2.949999999999998845, 15.00000000000000000 ) ) ;
#171 = VECTOR ( 'NONE', #211, 1000.000000000000000 ) ;
#172 = DIRECTION ( 'NONE',  ( 3.491481338843133355E-15, -1.224646799147353207E-16, 1.000000000000000000 ) ) ;
#173 = EDGE_CURVE ( 'NONE', #195, #244, #237, .T. ) ;
#174 = CARTESIAN_POINT ( 'NONE',  ( 0.000000000000000000, 0.000000000000000000, 0.000000000000000000 ) ) ;
#175 = ORIENTED_EDGE ( 'NONE', *, *, #113, .F. ) ;
#176 = CARTESIAN_POINT ( 'NONE',  ( 2.950000000000051692, 0.000000000000000000, 14.99999999999998934 ) ) ;
#177 = VERTEX_POINT ( 'NONE', #124 ) ;
#178 = EDGE_LOOP ( 'NONE', ( #2, #317, #212, #316 ) ) ;
#179 = SURFACE_STYLE_USAGE ( .BOTH. , #232 ) ;
#180 = DIRECTION ( 'NONE',  ( 0.000000000000000000, -1.000000000000000000, 0.000000000000000000 ) ) ;
#181 = DIRECTION ( 'NONE',  ( 3.491481338843133355E-15, -1.224646799147353207E-16, 1.000000000000000000 ) ) ;
#182 = CARTESIAN_POINT ( 'NONE',  ( 1.969195475107526960E-13, -6.907007947191071191E-15, 56.39999999999999147 ) ) ;
#183 = PRESENTATION_STYLE_ASSIGNMENT (( #156 ) ) ;
#184 = PRODUCT_CONTEXT ( 'NONE', #338, 'mechanical' ) ;
#185 = DIRECTION ( 'NONE',  ( 1.000000000000000000, 0.000000000000000000, 0.000000000000000000 ) ) ;
#186 = AXIS2_PLACEMENT_3D ( 'NONE', #243, #267, #69 ) ;
#187 = DIRECTION ( 'NONE',  ( 0.000000000000000000, 1.000000000000000000, 0.000000000000000000 ) ) ;
#188 = DIRECTION ( 'NONE',  ( 4.275831445896958607E-31, 1.000000000000000000, 1.224646799147353454E-16 ) ) ;
#189 = ORIENTED_EDGE ( 'NONE', *, *, #113, .T. ) ;
#190 = ADVANCED_FACE ( 'NONE', ( #263 ), #118, .T. ) ;
#191 = DIRECTION ( 'NONE',  ( 1.000000000000000000, 0.000000000000000000, -3.528251137579947388E-15 ) ) ;
#192 = EDGE_CURVE ( 'NONE', #244, #195, #29, .T. ) ;
#193 = CARTESIAN_POINT ( 'NONE',  ( -2.949999999999946443, 3.612708057484691604E-16, 15.00000000000001066 ) ) ;
#194 = DIRECTION ( 'NONE',  ( -3.491481338843133750E-15, 1.224646799147345072E-16, -1.000000000000000000 ) ) ;
#195 = VERTEX_POINT ( 'NONE', #168 ) ;
#196 = DIRECTION ( 'NONE',  ( -3.491481338843133750E-15, 1.224646799147345072E-16, -1.000000000000000000 ) ) ;
#197 = ORIENTED_EDGE ( 'NONE', *, *, #10, .T. ) ;
#198 = PRESENTATION_STYLE_ASSIGNMENT (( #179 ) ) ;
#199 = ORIENTED_EDGE ( 'NONE', *, *, #255, .F. ) ;
#200 =( NAMED_UNIT ( * ) SI_UNIT ( $, .STERADIAN. ) SOLID_ANGLE_UNIT ( ) );
#201 = DIRECTION ( 'NONE',  ( -4.275831445896958607E-31, -1.000000000000000000, -1.224646799147353207E-16 ) ) ;
#202 =( LENGTH_UNIT ( ) NAMED_UNIT ( * ) SI_UNIT ( .MILLI., .METRE. ) );
#203 =( NAMED_UNIT ( * ) PLANE_ANGLE_UNIT ( ) SI_UNIT ( $, .RADIAN. ) );
#204 = PRESENTATION_LAYER_ASSIGNMENT (  '', '', ( #58 ) ) ;
#205 = ADVANCED_FACE ( 'NONE', ( #63 ), #162, .T. ) ;
#206 = FACE_OUTER_BOUND ( 'NONE', #310, .T. ) ;
#207 = CARTESIAN_POINT ( 'NONE',  ( 1.979669919124056423E-13, 2.399999999999992362, 57.00000000000000000 ) ) ;
#208 = FILL_AREA_STYLE ('',( #276 ) ) ;
#209 = VERTEX_POINT ( 'NONE', #114 ) ;
#210 =( GEOMETRIC_REPRESENTATION_CONTEXT ( 3 ) GLOBAL_UNCERTAINTY_ASSIGNED_CONTEXT ( ( #68 ) ) GLOBAL_UNIT_ASSIGNED_CONTEXT ( ( #306, #203, #234 ) ) REPRESENTATION_CONTEXT ( 'NONE', 'WORKASPACE' ) );
#211 = DIRECTION ( 'NONE',  ( -3.491481338843133355E-15, 1.224646799147353207E-16, -1.000000000000000000 ) ) ;
#212 = ORIENTED_EDGE ( 'NONE', *, *, #327, .T. ) ;
#213 = AXIS2_PLACEMENT_3D ( 'NONE', #138, #324, #97 ) ;
#214 = DIRECTION ( 'NONE',  ( -3.491481338843133355E-15, 1.224646799147353207E-16, -1.000000000000000000 ) ) ;
#215 = PRODUCT ( '67456', '67456', '', ( #184 ) ) ;
#216 = EDGE_CURVE ( 'NONE', #177, #119, #258, .T. ) ;
#217 = CARTESIAN_POINT ( 'NONE',  ( 0.000000000000000000, 0.000000000000000000, 0.000000000000000000 ) ) ;
#218 = ADVANCED_FACE ( 'NONE', ( #40 ), #219, .T. ) ;
#219 = CYLINDRICAL_SURFACE ( 'NONE', #303, 2.949999999999999289 ) ;
#220 = CIRCLE ( 'NONE', #79, 2.999999999999998224 ) ;
#221 = VERTEX_POINT ( 'NONE', #291 ) ;
#222 = DIRECTION ( 'NONE',  ( -3.491481338843133355E-15, 1.224646799147353207E-16, -1.000000000000000000 ) ) ;
#223 = ORIENTED_EDGE ( 'NONE', *, *, #102, .F. ) ;
#224 = PRODUCT_DEFINITION_CONTEXT ( 'detailed design', #31, 'design' ) ;
#225 = DIRECTION ( 'NONE',  ( -3.491481338843133750E-15, 1.224646799147345072E-16, -1.000000000000000000 ) ) ;
#226 = ORIENTED_EDGE ( 'NONE', *, *, #335, .F. ) ;
#227 = CARTESIAN_POINT ( 'NONE',  ( 1.972869415504969014E-13, -3.000000000000005329, 56.39999999999999147 ) ) ;
#228 = DIRECTION ( 'NONE',  ( 0.000000000000000000, -1.000000000000000000, 0.000000000000000000 ) ) ;
#229 = DIRECTION ( 'NONE',  ( 3.491481338843133355E-15, -0.000000000000000000, 1.000000000000000000 ) ) ;
#230 =( GEOMETRIC_REPRESENTATION_CONTEXT ( 3 ) GLOBAL_UNCERTAINTY_ASSIGNED_CONTEXT ( ( #269 ) ) GLOBAL_UNIT_ASSIGNED_CONTEXT ( ( #155, #254, #200 ) ) REPRESENTATION_CONTEXT ( 'NONE', 'WORKASPACE' ) );
#231 = CARTESIAN_POINT ( 'NONE',  ( 1.990144363140586139E-13, -6.980486755139912911E-15, 57.00000000000000000 ) ) ;
#232 = SURFACE_SIDE_STYLE ('',( #249 ) ) ;
#233 = EDGE_CURVE ( 'NONE', #209, #135, #128, .T. ) ;
#234 =( NAMED_UNIT ( * ) SI_UNIT ( $, .STERADIAN. ) SOLID_ANGLE_UNIT ( ) );
#235 = CARTESIAN_POINT ( 'NONE',  ( 2.950000000000000178, 0.000000000000000000, -1.029986994958724340E-14 ) ) ;
#236 = APPLICATION_PROTOCOL_DEFINITION ( 'draft international standard', 'automotive_design', 1998, #338 ) ;
#237 = CIRCLE ( 'NONE', #153, 2.999999999999994671 ) ;
#238 = CARTESIAN_POINT ( 'NONE',  ( -2.949999999999946887, 3.612708057484691604E-16, 15.00000000000001066 ) ) ;
#239 = DIRECTION ( 'NONE',  ( 3.491481338843133355E-15, -0.000000000000000000, 1.000000000000000000 ) ) ;
#240 = DIRECTION ( 'NONE',  ( 1.000000000000000000, 0.000000000000000000, -3.491481338843133355E-15 ) ) ;
#241 = ORIENTED_EDGE ( 'NONE', *, *, #279, .F. ) ;
#242 = AXIS2_PLACEMENT_3D ( 'NONE', #34, #225, #321 ) ;
#243 = CARTESIAN_POINT ( 'NONE',  ( 5.237222008264700033E-14, 0.000000000000000000, 15.00000000000000000 ) ) ;
#244 = VERTEX_POINT ( 'NONE', #293 ) ;
#245 = CYLINDRICAL_SURFACE ( 'NONE', #151, 2.999999999999998224 ) ;
#246 = DIRECTION ( 'NONE',  ( 3.285674118869257083E-15, -0.3382550599108858358, 0.9410544694355810202 ) ) ;
#247 = LINE ( 'NONE', #238, #19 ) ;
#248 = ORIENTED_EDGE ( 'NONE', *, *, #121, .T. ) ;
#249 = SURFACE_STYLE_FILL_AREA ( #21 ) ;
#250 = VECTOR ( 'NONE', #122, 1000.000000000000227 ) ;
#251 = EDGE_LOOP ( 'NONE', ( #273, #330 ) ) ;
#252 = DIRECTION ( 'NONE',  ( 3.491481338843133355E-15, -0.000000000000000000, 1.000000000000000000 ) ) ;
#253 = CARTESIAN_POINT ( 'NONE',  ( 1.252561178193650578E-13, -3.000000000000005329, 56.39999999999999147 ) ) ;
#254 =( NAMED_UNIT ( * ) PLANE_ANGLE_UNIT ( ) SI_UNIT ( $, .RADIAN. ) );
#255 = EDGE_CURVE ( 'NONE', #135, #244, #92, .T. ) ;
#256 = DIRECTION ( 'NONE',  ( -3.491481338843133355E-15, 1.224646799147353207E-16, -1.000000000000000000 ) ) ;
#257 = DIRECTION ( 'NONE',  ( -3.491481338843133355E-15, 0.000000000000000000, -1.000000000000000000 ) ) ;
#258 = CIRCLE ( 'NONE', #242, 2.999999999999998224 ) ;
#259 =( LENGTH_UNIT ( ) NAMED_UNIT ( * ) SI_UNIT ( .MILLI., .METRE. ) );
#260 = CIRCLE ( 'NONE', #120, 2.950000000000000178 ) ;
#261 = EDGE_CURVE ( 'NONE', #264, #20, #105, .T. ) ;
#262 = ADVANCED_FACE ( 'NONE', ( #144 ), #245, .T. ) ;
#263 = FACE_OUTER_BOUND ( 'NONE', #87, .T. ) ;
#264 = VERTEX_POINT ( 'NONE', #176 ) ;
#265 = DIRECTION ( 'NONE',  ( 3.491481338843133355E-15, -0.000000000000000000, 1.000000000000000000 ) ) ;
#266 = ORIENTED_EDGE ( 'NONE', *, *, #102, .T. ) ;
#267 = DIRECTION ( 'NONE',  ( 3.491481338843133355E-15, -0.000000000000000000, 1.000000000000000000 ) ) ;
#268 = ORIENTED_EDGE ( 'NONE', *, *, #147, .T. ) ;
#269 = UNCERTAINTY_MEASURE_WITH_UNIT (LENGTH_MEASURE( 1.000000000000000082E-05 ), #155, 'distance_accuracy_value', 'NONE');
#270 = AXIS2_PLACEMENT_3D ( 'NONE', #67, #172, #228 ) ;
#271 = DIRECTION ( 'NONE',  ( 1.000000000000000000, 0.000000000000000000, -3.491481338843132961E-15 ) ) ;
#272 = AXIS2_PLACEMENT_3D ( 'NONE', #281, #257, #27 ) ;
#273 = ORIENTED_EDGE ( 'NONE', *, *, #261, .T. ) ;
#274 = CARTESIAN_POINT ( 'NONE',  ( 5.237222008264700033E-14, 0.000000000000000000, 15.00000000000000000 ) ) ;
#275 = ORIENTED_EDGE ( 'NONE', *, *, #10, .F. ) ;
#276 = FILL_AREA_STYLE_COLOUR ( '', #17 ) ;
#277 = PRESENTATION_LAYER_ASSIGNMENT (  '', '', ( #285 ) ) ;
#278 = ORIENTED_EDGE ( 'NONE', *, *, #261, .F. ) ;
#279 = EDGE_CURVE ( 'NONE', #70, #123, #56, .T. ) ;
#280 = CARTESIAN_POINT ( 'NONE',  ( 5.297939248831439275E-14, 2.949999999999998845, 15.00000000000000000 ) ) ;
#281 = CARTESIAN_POINT ( 'NONE',  ( 5.237222008264700033E-14, 2.949999999999998845, 15.00000000000000000 ) ) ;
#282 = APPLICATION_PROTOCOL_DEFINITION ( 'draft international standard', 'automotive_design', 1998, #31 ) ;
#283 = AXIS2_PLACEMENT_3D ( 'NONE', #302, #229, #78 ) ;
#284 = EDGE_CURVE ( 'NONE', #119, #195, #44, .T. ) ;
#285 = STYLED_ITEM ( 'NONE', ( #198 ), #301 ) ;
#286 = CARTESIAN_POINT ( 'NONE',  ( 5.285790004848911609E-14, -1.854005558726007719E-15, 15.13910427085457222 ) ) ;
#287 = ORIENTED_EDGE ( 'NONE', *, *, #279, .T. ) ;
#288 = AXIS2_PLACEMENT_3D ( 'NONE', #35, #194, #187 ) ;
#289 = FACE_OUTER_BOUND ( 'NONE', #139, .T. ) ;
#290 = EDGE_LOOP ( 'NONE', ( #241, #223 ) ) ;
#291 = CARTESIAN_POINT ( 'NONE',  ( 1.982976465481754348E-13, -2.400000000000006128, 57.00000000000000000 ) ) ;
#292 = FACE_OUTER_BOUND ( 'NONE', #30, .T. ) ;
#293 = CARTESIAN_POINT ( 'NONE',  ( 5.285790004848911609E-14, 2.999999999999993339, 15.13910427085457222 ) ) ;
#294 = ORIENTED_EDGE ( 'NONE', *, *, #233, .F. ) ;
#295 = ADVANCED_FACE ( 'NONE', ( #99 ), #61, .T. ) ;
#296 = DIRECTION ( 'NONE',  ( 0.000000000000000000, 1.000000000000000000, 0.000000000000000000 ) ) ;
#297 = CONICAL_SURFACE ( 'NONE', #270, 2.950000000000000622, 0.3450620389298230672 ) ;
#298 = ORIENTED_EDGE ( 'NONE', *, *, #163, .F. ) ;
#299 = LINE ( 'NONE', #73, #142 ) ;
#300 = CARTESIAN_POINT ( 'NONE',  ( 2.031019936801056170E-31, 2.950000000000000178, 5.817072295949930877E-17 ) ) ;
#301 = MANIFOLD_SOLID_BREP ( 'Corps-Déplacer/Copier1[2]', #305 ) ;
#302 = CARTESIAN_POINT ( 'NONE',  ( 5.237222008264700033E-14, 0.000000000000000000, 15.00000000000000000 ) ) ;
#303 = AXIS2_PLACEMENT_3D ( 'NONE', #94, #239, #191 ) ;
#304 = DIRECTION ( 'NONE',  ( -2.398081733190338443E-14, -1.000000000000000000, 0.000000000000000000 ) ) ;
#305 = CLOSED_SHELL ( 'NONE', ( #312, #218, #80, #38 ) ) ;
#306 =( LENGTH_UNIT ( ) NAMED_UNIT ( * ) SI_UNIT ( .MILLI., .METRE. ) );
#307 = DIRECTION ( 'NONE',  ( 3.491481338843133355E-15, -0.000000000000000000, 1.000000000000000000 ) ) ;
#308 = STYLED_ITEM ( 'NONE', ( #311 ), #60 ) ;
#309 = LINE ( 'NONE', #55, #59 ) ;
#310 = EDGE_LOOP ( 'NONE', ( #72, #189 ) ) ;
#311 = PRESENTATION_STYLE_ASSIGNMENT (( #132 ) ) ;
#312 = ADVANCED_FACE ( 'NONE', ( #150 ), #71, .T. ) ;
#313 = SURFACE_STYLE_FILL_AREA ( #208 ) ;
#314 = PRODUCT_DEFINITION_FORMATION_WITH_SPECIFIED_SOURCE ( 'ANY', '', #215, .NOT_KNOWN. ) ;
#315 = AXIS2_PLACEMENT_3D ( 'NONE', #174, #136, #271 ) ;
#316 = ORIENTED_EDGE ( 'NONE', *, *, #173, .F. ) ;
#317 = ORIENTED_EDGE ( 'NONE', *, *, #86, .T. ) ;
#318 = CARTESIAN_POINT ( 'NONE',  ( 1.969195475107526960E-13, -6.907007947191071191E-15, 56.39999999999999147 ) ) ;
#319 = AXIS2_PLACEMENT_3D ( 'NONE', #318, #196, #296 ) ;
#320 = ORIENTED_EDGE ( 'NONE', *, *, #25, .T. ) ;
#321 = DIRECTION ( 'NONE',  ( 2.486899575160350966E-14, -1.000000000000000000, 0.000000000000000000 ) ) ;
#322 = AXIS2_PLACEMENT_3D ( 'NONE', #49, #130, #201 ) ;
#323 = FACE_OUTER_BOUND ( 'NONE', #290, .T. ) ;
#324 = DIRECTION ( 'NONE',  ( 3.491481338843133355E-15, -1.224646799147353207E-16, 1.000000000000000000 ) ) ;
#325 = DIRECTION ( 'NONE',  ( -2.382254525458739952E-15, -0.7071067811865408004, -0.7071067811865541231 ) ) ;
#326 = LINE ( 'NONE', #1, #41 ) ;
#327 = EDGE_CURVE ( 'NONE', #177, #244, #299, .T. ) ;
#328 = EDGE_LOOP ( 'NONE', ( #287, #268, #278, #298 ) ) ;
#329 = CARTESIAN_POINT ( 'NONE',  ( 3.673940397442045077E-16, -2.999999999999998224, -3.673940397442070222E-16 ) ) ;
#330 = ORIENTED_EDGE ( 'NONE', *, *, #335, .T. ) ;
#331 = LINE ( 'NONE', #101, #107 ) ;
#332 = PRESENTATION_LAYER_ASSIGNMENT (  '', '', ( #308 ) ) ;
#333 = DIRECTION ( 'NONE',  ( 0.000000000000000000, -1.000000000000000000, 0.000000000000000000 ) ) ;
#334 = CIRCLE ( 'NONE', #39, 2.399999999999999467 ) ;
#335 = EDGE_CURVE ( 'NONE', #20, #264, #340, .T. ) ;
#336 = CLOSED_SHELL ( 'NONE', ( #295, #65, #262, #190, #134, #54, #205, #164 ) ) ;
#337 = PLANE ( 'NONE',  #272 ) ;
#338 = APPLICATION_CONTEXT ( 'automotive_design' ) ;
#339 = SURFACE_SIDE_STYLE ('',( #158 ) ) ;
#340 = CIRCLE ( 'NONE', #28, 2.949999999999998845 ) ;
#341 = EDGE_CURVE ( 'NONE', #98, #221, #334, .T. ) ;
#342 = SURFACE_SIDE_STYLE ('',( #313 ) ) ;
#343 = SHAPE_DEFINITION_REPRESENTATION ( #167, #60 ) ;
ENDSEC;
END-ISO-10303-21;
