ISO-10303-21;
HEADER;
FILE_DESCRIPTION (( 'STEP AP214' ),
    '1' );
FILE_NAME ('67455.step',
    '2024-04-04T13:00:12',
    ( '' ),
    ( '' ),
    'SwSTEP 2.0',
    'SolidWorks 2022',
    '' );
FILE_SCHEMA (( 'AUTOMOTIVE_DESIGN' ));
ENDSEC;

DATA;
#1 = EDGE_CURVE ( 'NONE', #221, #309, #310, .T. ) ;
#2 = CIRCLE ( 'NONE', #154, 2.000000000000000444 ) ;
#3 = UNCERTAINTY_MEASURE_WITH_UNIT (LENGTH_MEASURE( 1.000000000000000082E-05 ), #176, 'distance_accuracy_value', 'NONE');
#4 = ADVANCED_FACE ( 'NONE', ( #155 ), #138, .T. ) ;
#5 = CARTESIAN_POINT ( 'NONE',  ( 4.113693136643184705E-14, 2.999999999999994671, 11.78208541709180324 ) ) ;
#6 = ADVANCED_FACE ( 'NONE', ( #285 ), #28, .T. ) ;
#7 = DIRECTION ( 'NONE',  ( -3.491481338843133355E-15, 1.224646799147353207E-16, -1.000000000000000000 ) ) ;
#8 = PRESENTATION_STYLE_ASSIGNMENT (( #277 ) ) ;
#9 = DIRECTION ( 'NONE',  ( 4.275831445896958607E-31, 1.000000000000000000, 1.224646799147353207E-16 ) ) ;
#10 = PRODUCT ( '67455', '67455', '', ( #258 ) ) ;
#11 = CARTESIAN_POINT ( 'NONE',  ( 1.982976465481754853E-13, -2.400000000000012790, 57.00000000000000000 ) ) ;
#12 = DIRECTION ( 'NONE',  ( 1.000000000000000000, 0.000000000000000000, -3.469446951953615767E-15 ) ) ;
#13 = FACE_OUTER_BOUND ( 'NONE', #117, .T. ) ;
#14 = ORIENTED_EDGE ( 'NONE', *, *, #1, .T. ) ;
#15 = DIRECTION ( 'NONE',  ( 3.491481338843133355E-15, -1.224646799147353207E-16, 1.000000000000000000 ) ) ;
#16 = PRESENTATION_LAYER_ASSIGNMENT (  '', '', ( #75 ) ) ;
#17 = PRODUCT_DEFINITION_CONTEXT ( 'detailed design', #115, 'design' ) ;
#18 = APPLICATION_CONTEXT ( 'automotive_design' ) ;
#19 = DIRECTION ( 'NONE',  ( -3.491481338843133355E-15, 1.224646799147353207E-16, -1.000000000000000000 ) ) ;
#20 = EDGE_CURVE ( 'NONE', #221, #236, #278, .T. ) ;
#21 = DIRECTION ( 'NONE',  ( 0.000000000000000000, -1.000000000000000000, 0.000000000000000000 ) ) ;
#22 = CARTESIAN_POINT ( 'NONE',  ( -2.000000000000000000, 2.449293598294725643E-16, 6.982962677686266711E-15 ) ) ;
#23 = CONICAL_SURFACE ( 'NONE', #224, 2.999999999999999112, 0.7853981633974458365 ) ;
#24 = CARTESIAN_POINT ( 'NONE',  ( 0.000000000000000000, 0.000000000000000000, 0.000000000000000000 ) ) ;
#25 = VERTEX_POINT ( 'NONE', #22 ) ;
#26 = EDGE_LOOP ( 'NONE', ( #223, #52 ) ) ;
#27 = FILL_AREA_STYLE ('',( #339 ) ) ;
#28 = CONICAL_SURFACE ( 'NONE', #336, 2.999999999999999112, 0.7853981633974458365 ) ;
#29 =( GEOMETRIC_REPRESENTATION_CONTEXT ( 3 ) GLOBAL_UNCERTAINTY_ASSIGNED_CONTEXT ( ( #267 ) ) GLOBAL_UNIT_ASSIGNED_CONTEXT ( ( #62, #301, #333 ) ) REPRESENTATION_CONTEXT ( 'NONE', 'WORKASPACE' ) );
#30 = CIRCLE ( 'NONE', #113, 2.400000000000005684 ) ;
#31 = ORIENTED_EDGE ( 'NONE', *, *, #226, .F. ) ;
#32 = DIRECTION ( 'NONE',  ( 4.275831445896958607E-31, 1.000000000000000000, 1.224646799147353207E-16 ) ) ;
#33 = EDGE_CURVE ( 'NONE', #80, #275, #70, .T. ) ;
#34 = CYLINDRICAL_SURFACE ( 'NONE', #81, 2.999999999999999112 ) ;
#35 = AXIS2_PLACEMENT_3D ( 'NONE', #240, #337, #130 ) ;
#36 = CARTESIAN_POINT ( 'NONE',  ( 0.000000000000000000, 0.000000000000000000, 0.000000000000000000 ) ) ;
#37 = DIRECTION ( 'NONE',  ( 3.491481338843133355E-15, -0.000000000000000000, 1.000000000000000000 ) ) ;
#38 =( LENGTH_UNIT ( ) NAMED_UNIT ( * ) SI_UNIT ( .MILLI., .METRE. ) );
#39 = FACE_OUTER_BOUND ( 'NONE', #56, .T. ) ;
#40 = PRODUCT_DEFINITION_SHAPE ( 'NONE', 'NONE',  #166 ) ;
#41 = PLANE ( 'NONE',  #288 ) ;
#42 = ORIENTED_EDGE ( 'NONE', *, *, #116, .T. ) ;
#43 = CARTESIAN_POINT ( 'NONE',  ( 3.142333204958820020E-14, 1.999999999999999112, 9.000000000000000000 ) ) ;
#44 = CYLINDRICAL_SURFACE ( 'NONE', #127, 1.999999999999999556 ) ;
#45 = DIRECTION ( 'NONE',  ( 2.664535259100375697E-14, -1.000000000000000000, 0.000000000000000000 ) ) ;
#46 = AXIS2_PLACEMENT_3D ( 'NONE', #325, #37, #149 ) ;
#47 = CARTESIAN_POINT ( 'NONE',  ( 3.142333204958820020E-14, -1.102182119232617714E-15, 9.000000000000000000 ) ) ;
#48 = EDGE_CURVE ( 'NONE', #242, #340, #200, .T. ) ;
#49 = ORIENTED_EDGE ( 'NONE', *, *, #171, .F. ) ;
#50 = EDGE_LOOP ( 'NONE', ( #98, #343 ) ) ;
#51 = STYLED_ITEM ( 'NONE', ( #260 ), #120 ) ;
#52 = ORIENTED_EDGE ( 'NONE', *, *, #256, .F. ) ;
#53 = EDGE_LOOP ( 'NONE', ( #165, #107, #232, #331 ) ) ;
#54 = EDGE_LOOP ( 'NONE', ( #251, #219, #42, #112 ) ) ;
#55 = CLOSED_SHELL ( 'NONE', ( #103, #314, #322, #239 ) ) ;
#56 = EDGE_LOOP ( 'NONE', ( #167, #87, #111, #243 ) ) ;
#57 = CIRCLE ( 'NONE', #293, 2.999999999999999112 ) ;
#58 = CARTESIAN_POINT ( 'NONE',  ( 1.282749433769087232E-30, 2.999999999999999112, 3.673940397442058882E-16 ) ) ;
#59 = LINE ( 'NONE', #233, #209 ) ;
#60 = ORIENTED_EDGE ( 'NONE', *, *, #197, .F. ) ;
#61 = CARTESIAN_POINT ( 'NONE',  ( 3.142333204958820020E-14, 0.000000000000000000, 9.000000000000000000 ) ) ;
#62 =( LENGTH_UNIT ( ) NAMED_UNIT ( * ) SI_UNIT ( .MILLI., .METRE. ) );
#63 = PRESENTATION_LAYER_ASSIGNMENT (  '', '', ( #119 ) ) ;
#64 = DIRECTION ( 'NONE',  ( -3.491481338843133355E-15, 1.224646799147347537E-16, -1.000000000000000000 ) ) ;
#65 = FILL_AREA_STYLE ('',( #96 ) ) ;
#66 = EDGE_LOOP ( 'NONE', ( #151, #311 ) ) ;
#67 = DIRECTION ( 'NONE',  ( 3.491481338843133355E-15, -0.000000000000000000, 1.000000000000000000 ) ) ;
#68 = SURFACE_STYLE_FILL_AREA ( #65 ) ;
#69 = CYLINDRICAL_SURFACE ( 'NONE', #105, 2.999999999999999112 ) ;
#70 = CIRCLE ( 'NONE', #264, 1.999999999999999112 ) ;
#71 = DIRECTION ( 'NONE',  ( 1.000000000000000000, 0.000000000000000000, -3.469446951953614978E-15 ) ) ;
#72 = MECHANICAL_DESIGN_GEOMETRIC_PRESENTATION_REPRESENTATION (  '', ( #51 ), #316 ) ;
#73 = FACE_OUTER_BOUND ( 'NONE', #210, .T. ) ;
#74 = ADVANCED_FACE ( 'NONE', ( #104 ), #194, .T. ) ;
#75 = STYLED_ITEM ( 'NONE', ( #208 ), #341 ) ;
#76 = APPLICATION_PROTOCOL_DEFINITION ( 'draft international standard', 'automotive_design', 1998, #18 ) ;
#77 = LINE ( 'NONE', #283, #160 ) ;
#78 = ORIENTED_EDGE ( 'NONE', *, *, #33, .T. ) ;
#79 = CARTESIAN_POINT ( 'NONE',  ( 1.969195475107527465E-13, -6.907007947191072769E-15, 56.40000000000000568 ) ) ;
#80 = VERTEX_POINT ( 'NONE', #217 ) ;
#81 = AXIS2_PLACEMENT_3D ( 'NONE', #122, #270, #9 ) ;
#82 =( NAMED_UNIT ( * ) SI_UNIT ( $, .STERADIAN. ) SOLID_ANGLE_UNIT ( ) );
#83 = ORIENTED_EDGE ( 'NONE', *, *, #218, .T. ) ;
#84 = EDGE_CURVE ( 'NONE', #236, #261, #131, .T. ) ;
#85 = COLOUR_RGB ( '',1.000000000000000000, 1.000000000000000000, 1.000000000000000000 ) ;
#86 = PRODUCT_RELATED_PRODUCT_CATEGORY ( 'part', '', ( #10 ) ) ;
#87 = ORIENTED_EDGE ( 'NONE', *, *, #171, .T. ) ;
#88 = UNCERTAINTY_MEASURE_WITH_UNIT (LENGTH_MEASURE( 1.000000000000000082E-05 ), #161, 'distance_accuracy_value', 'NONE');
#89 = PLANE ( 'NONE',  #228 ) ;
#90 = VECTOR ( 'NONE', #274, 1000.000000000000000 ) ;
#91 = DIRECTION ( 'NONE',  ( 3.491481338843133355E-15, -1.224646799147353207E-16, 1.000000000000000000 ) ) ;
#92 = CARTESIAN_POINT ( 'NONE',  ( 3.142333204958820020E-14, -1.102182119232617714E-15, 9.000000000000000000 ) ) ;
#93 =( NAMED_UNIT ( * ) PLANE_ANGLE_UNIT ( ) SI_UNIT ( $, .RADIAN. ) );
#94 = CARTESIAN_POINT ( 'NONE',  ( 0.000000000000000000, 0.000000000000000000, 0.000000000000000000 ) ) ;
#95 = AXIS2_PLACEMENT_3D ( 'NONE', #43, #7, #32 ) ;
#96 = FILL_AREA_STYLE_COLOUR ( '', #85 ) ;
#97 = PRODUCT_DEFINITION_FORMATION_WITH_SPECIFIED_SOURCE ( 'ANY', '', #10, .NOT_KNOWN. ) ;
#98 = ORIENTED_EDGE ( 'NONE', *, *, #20, .T. ) ;
#99 = DIRECTION ( 'NONE',  ( 0.000000000000000000, 1.000000000000000000, 0.000000000000000000 ) ) ;
#100 = DIRECTION ( 'NONE',  ( 3.491481338843133355E-15, -0.000000000000000000, 1.000000000000000000 ) ) ;
#101 = CARTESIAN_POINT ( 'NONE',  ( 3.142333204958820020E-14, -1.102182119232617714E-15, 9.000000000000000000 ) ) ;
#102 = FILL_AREA_STYLE_COLOUR ( '', #265 ) ;
#103 = ADVANCED_FACE ( 'NONE', ( #73 ), #189, .T. ) ;
#104 = FACE_OUTER_BOUND ( 'NONE', #53, .T. ) ;
#105 = AXIS2_PLACEMENT_3D ( 'NONE', #186, #19, #173 ) ;
#106 = AXIS2_PLACEMENT_3D ( 'NONE', #24, #158, #262 ) ;
#107 = ORIENTED_EDGE ( 'NONE', *, *, #84, .T. ) ;
#108 = SURFACE_SIDE_STYLE ('',( #222 ) ) ;
#109 = ORIENTED_EDGE ( 'NONE', *, *, #116, .F. ) ;
#110 = DIRECTION ( 'NONE',  ( 0.000000000000000000, -1.000000000000000000, 0.000000000000000000 ) ) ;
#111 = ORIENTED_EDGE ( 'NONE', *, *, #48, .F. ) ;
#112 = ORIENTED_EDGE ( 'NONE', *, *, #33, .F. ) ;
#113 = AXIS2_PLACEMENT_3D ( 'NONE', #211, #229, #323 ) ;
#114 = EDGE_CURVE ( 'NONE', #261, #309, #178, .T. ) ;
#115 = APPLICATION_CONTEXT ( 'automotive_design' ) ;
#116 = EDGE_CURVE ( 'NONE', #289, #275, #77, .T. ) ;
#117 = EDGE_LOOP ( 'NONE', ( #263, #78 ) ) ;
#118 = DIRECTION ( 'NONE',  ( 0.000000000000000000, 1.000000000000000000, 0.000000000000000000 ) ) ;
#119 = STYLED_ITEM ( 'NONE', ( #8 ), #342 ) ;
#120 = ADVANCED_BREP_SHAPE_REPRESENTATION ( '67455', ( #342, #341, #106 ), #163 ) ;
#121 = DIRECTION ( 'NONE',  ( -2.382254525458722992E-15, -0.7071067811865456854, -0.7071067811865493491 ) ) ;
#122 = CARTESIAN_POINT ( 'NONE',  ( 0.000000000000000000, 0.000000000000000000, 0.000000000000000000 ) ) ;
#123 = CARTESIAN_POINT ( 'NONE',  ( 3.142333204958820020E-14, 1.999999999999999112, 9.000000000000000000 ) ) ;
#124 = CARTESIAN_POINT ( 'NONE',  ( 1.972869415504969519E-13, -3.000000000000006217, 56.40000000000000568 ) ) ;
#125 = DIRECTION ( 'NONE',  ( -3.491481338843133355E-15, 0.000000000000000000, -1.000000000000000000 ) ) ;
#126 = EDGE_LOOP ( 'NONE', ( #136, #246, #14, #137 ) ) ;
#127 = AXIS2_PLACEMENT_3D ( 'NONE', #153, #100, #71 ) ;
#128 = DIRECTION ( 'NONE',  ( 0.000000000000000000, -1.000000000000000000, 0.000000000000000000 ) ) ;
#129 = CARTESIAN_POINT ( 'NONE',  ( 1.193956334783364486E-13, -2.999999999999997335, 11.78208541709180324 ) ) ;
#130 = DIRECTION ( 'NONE',  ( 0.000000000000000000, 1.000000000000000000, 0.000000000000000000 ) ) ;
#131 = LINE ( 'NONE', #241, #315 ) ;
#132 = VECTOR ( 'NONE', #259, 999.9999999999998863 ) ;
#133 = AXIS2_PLACEMENT_3D ( 'NONE', #193, #213, #307 ) ;
#134 =( NAMED_UNIT ( * ) SI_UNIT ( $, .STERADIAN. ) SOLID_ANGLE_UNIT ( ) );
#135 = DIRECTION ( 'NONE',  ( 1.000000000000000000, 0.000000000000000000, -3.469446951953615767E-15 ) ) ;
#136 = ORIENTED_EDGE ( 'NONE', *, *, #84, .F. ) ;
#137 = ORIENTED_EDGE ( 'NONE', *, *, #197, .T. ) ;
#138 = CONICAL_SURFACE ( 'NONE', #318, 2.000000000000000444, 0.3450620389298187929 ) ;
#139 = AXIS2_PLACEMENT_3D ( 'NONE', #185, #15, #128 ) ;
#140 = ADVANCED_FACE ( 'NONE', ( #237 ), #69, .T. ) ;
#141 = UNCERTAINTY_MEASURE_WITH_UNIT (LENGTH_MEASURE( 1.000000000000000082E-05 ), #38, 'distance_accuracy_value', 'NONE');
#142 = CIRCLE ( 'NONE', #317, 1.999999999999999112 ) ;
#143 = ORIENTED_EDGE ( 'NONE', *, *, #280, .F. ) ;
#144 = CARTESIAN_POINT ( 'NONE',  ( -1.999999999999968470, 2.449293598294705921E-16, 9.000000000000007105 ) ) ;
#145 = AXIS2_PLACEMENT_3D ( 'NONE', #101, #159, #164 ) ;
#146 = PLANE ( 'NONE',  #95 ) ;
#147 = SURFACE_STYLE_FILL_AREA ( #324 ) ;
#148 = ADVANCED_FACE ( 'NONE', ( #207 ), #146, .T. ) ;
#149 = DIRECTION ( 'NONE',  ( 1.000000000000000000, 0.000000000000000000, -3.491481338843133355E-15 ) ) ;
#150 = CARTESIAN_POINT ( 'NONE',  ( 2.000000000000000000, 0.000000000000000000, -6.982962677686266711E-15 ) ) ;
#151 = ORIENTED_EDGE ( 'NONE', *, *, #174, .T. ) ;
#152 = LINE ( 'NONE', #124, #198 ) ;
#153 = CARTESIAN_POINT ( 'NONE',  ( 3.142333204958820020E-14, 0.000000000000000000, 9.000000000000000000 ) ) ;
#154 = AXIS2_PLACEMENT_3D ( 'NONE', #92, #276, #99 ) ;
#155 = FACE_OUTER_BOUND ( 'NONE', #126, .T. ) ;
#156 =( NAMED_UNIT ( * ) PLANE_ANGLE_UNIT ( ) SI_UNIT ( $, .RADIAN. ) );
#157 = DIRECTION ( 'NONE',  ( 3.491481338843133355E-15, -1.224646799147353207E-16, 1.000000000000000000 ) ) ;
#158 = DIRECTION ( 'NONE',  ( 0.000000000000000000, 0.000000000000000000, 1.000000000000000000 ) ) ;
#159 = DIRECTION ( 'NONE',  ( -3.491481338843133355E-15, 1.224646799147353207E-16, -1.000000000000000000 ) ) ;
#160 = VECTOR ( 'NONE', #305, 1000.000000000000000 ) ;
#161 =( LENGTH_UNIT ( ) NAMED_UNIT ( * ) SI_UNIT ( .MILLI., .METRE. ) );
#162 = EDGE_LOOP ( 'NONE', ( #49, #328, #192, #292 ) ) ;
#163 =( GEOMETRIC_REPRESENTATION_CONTEXT ( 3 ) GLOBAL_UNCERTAINTY_ASSIGNED_CONTEXT ( ( #3 ) ) GLOBAL_UNIT_ASSIGNED_CONTEXT ( ( #176, #93, #134 ) ) REPRESENTATION_CONTEXT ( 'NONE', 'WORKASPACE' ) );
#164 = DIRECTION ( 'NONE',  ( 0.000000000000000000, 1.000000000000000000, 0.000000000000000000 ) ) ;
#165 = ORIENTED_EDGE ( 'NONE', *, *, #168, .F. ) ;
#166 = PRODUCT_DEFINITION ( 'UNKNOWN', '', #97, #17 ) ;
#167 = ORIENTED_EDGE ( 'NONE', *, *, #290, .F. ) ;
#168 = EDGE_CURVE ( 'NONE', #236, #221, #2, .T. ) ;
#169 = AXIS2_PLACEMENT_3D ( 'NONE', #215, #332, #45 ) ;
#170 = VECTOR ( 'NONE', #273, 1000.000000000000114 ) ;
#171 = EDGE_CURVE ( 'NONE', #312, #340, #152, .T. ) ;
#172 = DIRECTION ( 'NONE',  ( 3.491481338843133355E-15, -0.000000000000000000, 1.000000000000000000 ) ) ;
#173 = DIRECTION ( 'NONE',  ( 4.275831445896958607E-31, 1.000000000000000000, 1.224646799147353207E-16 ) ) ;
#174 = EDGE_CURVE ( 'NONE', #287, #312, #30, .T. ) ;
#175 = EDGE_CURVE ( 'NONE', #25, #80, #202, .T. ) ;
#176 =( LENGTH_UNIT ( ) NAMED_UNIT ( * ) SI_UNIT ( .MILLI., .METRE. ) );
#177 = EDGE_LOOP ( 'NONE', ( #195, #83, #184, #60 ) ) ;
#178 = CIRCLE ( 'NONE', #35, 2.999999999999996003 ) ;
#179 = DIRECTION ( 'NONE',  ( 3.491481338843133355E-15, -0.000000000000000000, 1.000000000000000000 ) ) ;
#180 = DIRECTION ( 'NONE',  ( 1.000000000000000000, 0.000000000000000000, -3.491481338843133355E-15 ) ) ;
#181 = AXIS2_PLACEMENT_3D ( 'NONE', #94, #67, #205 ) ;
#182 = LINE ( 'NONE', #58, #90 ) ;
#183 = LINE ( 'NONE', #231, #170 ) ;
#184 = ORIENTED_EDGE ( 'NONE', *, *, #280, .T. ) ;
#185 = CARTESIAN_POINT ( 'NONE',  ( 1.990144363140586139E-13, -6.980486755139912911E-15, 57.00000000000000000 ) ) ;
#186 = CARTESIAN_POINT ( 'NONE',  ( 0.000000000000000000, 0.000000000000000000, 0.000000000000000000 ) ) ;
#187 = SURFACE_SIDE_STYLE ('',( #68 ) ) ;
#188 = MECHANICAL_DESIGN_GEOMETRIC_PRESENTATION_REPRESENTATION (  '', ( #75 ), #29 ) ;
#189 = CYLINDRICAL_SURFACE ( 'NONE', #133, 1.999999999999999556 ) ;
#190 = APPLICATION_PROTOCOL_DEFINITION ( 'draft international standard', 'automotive_design', 1998, #115 ) ;
#191 = CARTESIAN_POINT ( 'NONE',  ( 3.142333204958820020E-14, -1.102182119232617714E-15, 9.000000000000000000 ) ) ;
#192 = ORIENTED_EDGE ( 'NONE', *, *, #320, .T. ) ;
#193 = CARTESIAN_POINT ( 'NONE',  ( 3.142333204958820020E-14, 0.000000000000000000, 9.000000000000000000 ) ) ;
#194 = CONICAL_SURFACE ( 'NONE', #298, 2.000000000000000444, 0.3450620389298187929 ) ;
#195 = ORIENTED_EDGE ( 'NONE', *, *, #201, .F. ) ;
#196 = COLOUR_RGB ( '',1.000000000000000000, 1.000000000000000000, 1.000000000000000000 ) ;
#197 = EDGE_CURVE ( 'NONE', #309, #261, #244, .T. ) ;
#198 = VECTOR ( 'NONE', #121, 1000.000000000000114 ) ;
#199 = ORIENTED_EDGE ( 'NONE', *, *, #114, .F. ) ;
#200 = CIRCLE ( 'NONE', #169, 2.999999999999999112 ) ;
#201 = EDGE_CURVE ( 'NONE', #340, #309, #59, .T. ) ;
#202 = LINE ( 'NONE', #144, #330 ) ;
#203 = MECHANICAL_DESIGN_GEOMETRIC_PRESENTATION_REPRESENTATION (  '', ( #119 ), #300 ) ;
#204 = ADVANCED_FACE ( 'NONE', ( #247 ), #34, .T. ) ;
#205 = DIRECTION ( 'NONE',  ( 1.000000000000000000, 0.000000000000000000, -3.491481338843133355E-15 ) ) ;
#206 = DIRECTION ( 'NONE',  ( -3.491481338843133355E-15, 1.224646799147353207E-16, -1.000000000000000000 ) ) ;
#207 = FACE_OUTER_BOUND ( 'NONE', #50, .T. ) ;
#208 = PRESENTATION_STYLE_ASSIGNMENT (( #327 ) ) ;
#209 = VECTOR ( 'NONE', #206, 1000.000000000000000 ) ;
#210 = EDGE_LOOP ( 'NONE', ( #225, #284, #31, #109 ) ) ;
#211 = CARTESIAN_POINT ( 'NONE',  ( 1.990144363140586139E-13, -6.980486755139912911E-15, 57.00000000000000000 ) ) ;
#212 = DIRECTION ( 'NONE',  ( -1.000000000000000000, 0.000000000000000000, 3.491481338843133355E-15 ) ) ;
#213 = DIRECTION ( 'NONE',  ( 3.491481338843133355E-15, -0.000000000000000000, 1.000000000000000000 ) ) ;
#214 = DIRECTION ( 'NONE',  ( -4.275831445896958607E-31, -1.000000000000000000, -1.224646799147353207E-16 ) ) ;
#215 = CARTESIAN_POINT ( 'NONE',  ( 1.969195475107527465E-13, -6.907007947191072769E-15, 56.40000000000000568 ) ) ;
#216 = SURFACE_STYLE_USAGE ( .BOTH. , #108 ) ;
#217 = CARTESIAN_POINT ( 'NONE',  ( -1.999999999999968026, 2.449293598294705921E-16, 9.000000000000007105 ) ) ;
#218 = EDGE_CURVE ( 'NONE', #340, #242, #57, .T. ) ;
#219 = ORIENTED_EDGE ( 'NONE', *, *, #256, .T. ) ;
#220 = ORIENTED_EDGE ( 'NONE', *, *, #48, .T. ) ;
#221 = VERTEX_POINT ( 'NONE', #297 ) ;
#222 = SURFACE_STYLE_FILL_AREA ( #27 ) ;
#223 = ORIENTED_EDGE ( 'NONE', *, *, #295, .F. ) ;
#224 = AXIS2_PLACEMENT_3D ( 'NONE', #299, #64, #118 ) ;
#225 = ORIENTED_EDGE ( 'NONE', *, *, #295, .T. ) ;
#226 = EDGE_CURVE ( 'NONE', #275, #80, #142, .T. ) ;
#227 = CARTESIAN_POINT ( 'NONE',  ( 1.979669919124056928E-13, 2.399999999999999023, 57.00000000000000000 ) ) ;
#228 = AXIS2_PLACEMENT_3D ( 'NONE', #321, #91, #214 ) ;
#229 = DIRECTION ( 'NONE',  ( 3.491481338843133355E-15, -1.224646799147353207E-16, 1.000000000000000000 ) ) ;
#230 = CARTESIAN_POINT ( 'NONE',  ( 4.113693136643184705E-14, -1.442889319332218582E-15, 11.78208541709180324 ) ) ;
#231 = CARTESIAN_POINT ( 'NONE',  ( 1.969195475107527465E-13, 2.999999999999992450, 56.40000000000000568 ) ) ;
#232 = ORIENTED_EDGE ( 'NONE', *, *, #114, .T. ) ;
#233 = CARTESIAN_POINT ( 'NONE',  ( 3.673940397442046063E-16, -2.999999999999999112, -3.673940397442071208E-16 ) ) ;
#234 = CIRCLE ( 'NONE', #181, 2.000000000000000000 ) ;
#235 = ORIENTED_EDGE ( 'NONE', *, *, #201, .T. ) ;
#236 = VERTEX_POINT ( 'NONE', #271 ) ;
#237 = FACE_OUTER_BOUND ( 'NONE', #302, .T. ) ;
#238 =( NAMED_UNIT ( * ) SI_UNIT ( $, .STERADIAN. ) SOLID_ANGLE_UNIT ( ) );
#239 = ADVANCED_FACE ( 'NONE', ( #269 ), #329, .F. ) ;
#240 = CARTESIAN_POINT ( 'NONE',  ( 4.113693136643184705E-14, -1.442889319332218582E-15, 11.78208541709180324 ) ) ;
#241 = CARTESIAN_POINT ( 'NONE',  ( 3.166826140941767049E-14, 1.999999999999999112, 9.000000000000000000 ) ) ;
#242 = VERTEX_POINT ( 'NONE', #249 ) ;
#243 = ORIENTED_EDGE ( 'NONE', *, *, #320, .F. ) ;
#244 = CIRCLE ( 'NONE', #272, 2.999999999999996003 ) ;
#245 = PRESENTATION_LAYER_ASSIGNMENT (  '', '', ( #51 ) ) ;
#246 = ORIENTED_EDGE ( 'NONE', *, *, #20, .F. ) ;
#247 = FACE_OUTER_BOUND ( 'NONE', #177, .T. ) ;
#248 = DIRECTION ( 'NONE',  ( -3.491481338843133355E-15, 1.224646799147347537E-16, -1.000000000000000000 ) ) ;
#249 = CARTESIAN_POINT ( 'NONE',  ( 1.190282394385922936E-13, 2.999999999999992450, 56.40000000000000568 ) ) ;
#250 = CARTESIAN_POINT ( 'NONE',  ( 1.969195475107527465E-13, -6.907007947191072769E-15, 56.40000000000000568 ) ) ;
#251 = ORIENTED_EDGE ( 'NONE', *, *, #175, .F. ) ;
#252 = CARTESIAN_POINT ( 'NONE',  ( 2.000000000000030198, 0.000000000000000000, 8.999999999999992895 ) ) ;
#253 = CARTESIAN_POINT ( 'NONE',  ( 1.193956334783364233E-13, -3.000000000000006217, 56.40000000000000568 ) ) ;
#254 = DIRECTION ( 'NONE',  ( 3.491481338843133355E-15, -0.000000000000000000, 1.000000000000000000 ) ) ;
#255 = FACE_OUTER_BOUND ( 'NONE', #54, .T. ) ;
#256 = EDGE_CURVE ( 'NONE', #25, #289, #234, .T. ) ;
#257 = DIRECTION ( 'NONE',  ( 0.000000000000000000, 1.000000000000000000, 0.000000000000000000 ) ) ;
#258 = PRODUCT_CONTEXT ( 'NONE', #18, 'mechanical' ) ;
#259 = DIRECTION ( 'NONE',  ( 3.285674118869262605E-15, -0.3382550599108818390, 0.9410544694355825746 ) ) ;
#260 = PRESENTATION_STYLE_ASSIGNMENT (( #216 ) ) ;
#261 = VERTEX_POINT ( 'NONE', #5 ) ;
#262 = DIRECTION ( 'NONE',  ( 1.000000000000000000, 0.000000000000000000, 0.000000000000000000 ) ) ;
#263 = ORIENTED_EDGE ( 'NONE', *, *, #226, .T. ) ;
#264 = AXIS2_PLACEMENT_3D ( 'NONE', #279, #254, #135 ) ;
#265 = COLOUR_RGB ( '',1.000000000000000000, 1.000000000000000000, 1.000000000000000000 ) ;
#266 = ADVANCED_FACE ( 'NONE', ( #39 ), #23, .T. ) ;
#267 = UNCERTAINTY_MEASURE_WITH_UNIT (LENGTH_MEASURE( 1.000000000000000082E-05 ), #62, 'distance_accuracy_value', 'NONE');
#268 = AXIS2_PLACEMENT_3D ( 'NONE', #36, #335, #180 ) ;
#269 = FACE_OUTER_BOUND ( 'NONE', #26, .T. ) ;
#270 = DIRECTION ( 'NONE',  ( -3.491481338843133355E-15, 1.224646799147353207E-16, -1.000000000000000000 ) ) ;
#271 = CARTESIAN_POINT ( 'NONE',  ( 3.658629340779685834E-14, 1.999999999999999112, 9.000000000000000000 ) ) ;
#272 = AXIS2_PLACEMENT_3D ( 'NONE', #230, #296, #303 ) ;
#273 = DIRECTION ( 'NONE',  ( -2.468850131082271260E-15, 0.7071067811865459074, -0.7071067811865491270 ) ) ;
#274 = DIRECTION ( 'NONE',  ( -3.491481338843133355E-15, 1.224646799147353207E-16, -1.000000000000000000 ) ) ;
#275 = VERTEX_POINT ( 'NONE', #252 ) ;
#276 = DIRECTION ( 'NONE',  ( -3.491481338843133355E-15, 1.224646799147353207E-16, -1.000000000000000000 ) ) ;
#277 = SURFACE_STYLE_USAGE ( .BOTH. , #304 ) ;
#278 = CIRCLE ( 'NONE', #145, 2.000000000000000444 ) ;
#279 = CARTESIAN_POINT ( 'NONE',  ( 3.142333204958820020E-14, 0.000000000000000000, 9.000000000000000000 ) ) ;
#280 = EDGE_CURVE ( 'NONE', #242, #261, #182, .T. ) ;
#281 = CIRCLE ( 'NONE', #139, 2.400000000000005684 ) ;
#282 = CARTESIAN_POINT ( 'NONE',  ( 3.142333204958820020E-14, -2.000000000000001776, 9.000000000000000000 ) ) ;
#283 = CARTESIAN_POINT ( 'NONE',  ( 2.000000000000030642, 0.000000000000000000, 8.999999999999992895 ) ) ;
#284 = ORIENTED_EDGE ( 'NONE', *, *, #175, .T. ) ;
#285 = FACE_OUTER_BOUND ( 'NONE', #162, .T. ) ;
#286 = SHAPE_DEFINITION_REPRESENTATION ( #40, #120 ) ;
#287 = VERTEX_POINT ( 'NONE', #227 ) ;
#288 = AXIS2_PLACEMENT_3D ( 'NONE', #123, #125, #212 ) ;
#289 = VERTEX_POINT ( 'NONE', #150 ) ;
#290 = EDGE_CURVE ( 'NONE', #312, #287, #281, .T. ) ;
#291 = ADVANCED_FACE ( 'NONE', ( #319 ), #89, .T. ) ;
#292 = ORIENTED_EDGE ( 'NONE', *, *, #218, .F. ) ;
#293 = AXIS2_PLACEMENT_3D ( 'NONE', #250, #248, #294 ) ;
#294 = DIRECTION ( 'NONE',  ( -2.575717417130363174E-14, -1.000000000000000000, 0.000000000000000000 ) ) ;
#295 = EDGE_CURVE ( 'NONE', #289, #25, #313, .T. ) ;
#296 = DIRECTION ( 'NONE',  ( -3.491481338843133355E-15, 1.224646799147353207E-16, -1.000000000000000000 ) ) ;
#297 = CARTESIAN_POINT ( 'NONE',  ( 3.628013170801002678E-14, -2.000000000000001776, 9.000000000000000000 ) ) ;
#298 = AXIS2_PLACEMENT_3D ( 'NONE', #47, #157, #21 ) ;
#299 = CARTESIAN_POINT ( 'NONE',  ( 1.969195475107527465E-13, -6.907007947191072769E-15, 56.40000000000000568 ) ) ;
#300 =( GEOMETRIC_REPRESENTATION_CONTEXT ( 3 ) GLOBAL_UNCERTAINTY_ASSIGNED_CONTEXT ( ( #141 ) ) GLOBAL_UNIT_ASSIGNED_CONTEXT ( ( #38, #156, #238 ) ) REPRESENTATION_CONTEXT ( 'NONE', 'WORKASPACE' ) );
#301 =( NAMED_UNIT ( * ) PLANE_ANGLE_UNIT ( ) SI_UNIT ( $, .RADIAN. ) );
#302 = EDGE_LOOP ( 'NONE', ( #220, #235, #199, #143 ) ) ;
#303 = DIRECTION ( 'NONE',  ( 0.000000000000000000, 1.000000000000000000, 0.000000000000000000 ) ) ;
#304 = SURFACE_SIDE_STYLE ('',( #147 ) ) ;
#305 = DIRECTION ( 'NONE',  ( 3.491481338843133355E-15, -0.000000000000000000, 1.000000000000000000 ) ) ;
#306 = DIRECTION ( 'NONE',  ( 3.327098416510788398E-15, 0.3382550599108816725, 0.9410544694355825746 ) ) ;
#307 = DIRECTION ( 'NONE',  ( 1.000000000000000000, 0.000000000000000000, -3.469446951953614978E-15 ) ) ;
#308 =( NAMED_UNIT ( * ) PLANE_ANGLE_UNIT ( ) SI_UNIT ( $, .RADIAN. ) );
#309 = VERTEX_POINT ( 'NONE', #129 ) ;
#310 = LINE ( 'NONE', #282, #132 ) ;
#311 = ORIENTED_EDGE ( 'NONE', *, *, #290, .T. ) ;
#312 = VERTEX_POINT ( 'NONE', #11 ) ;
#313 = CIRCLE ( 'NONE', #268, 2.000000000000000000 ) ;
#314 = ADVANCED_FACE ( 'NONE', ( #255 ), #44, .T. ) ;
#315 = VECTOR ( 'NONE', #306, 999.9999999999998863 ) ;
#316 =( GEOMETRIC_REPRESENTATION_CONTEXT ( 3 ) GLOBAL_UNCERTAINTY_ASSIGNED_CONTEXT ( ( #88 ) ) GLOBAL_UNIT_ASSIGNED_CONTEXT ( ( #161, #308, #82 ) ) REPRESENTATION_CONTEXT ( 'NONE', 'WORKASPACE' ) );
#317 = AXIS2_PLACEMENT_3D ( 'NONE', #61, #179, #12 ) ;
#318 = AXIS2_PLACEMENT_3D ( 'NONE', #191, #338, #110 ) ;
#319 = FACE_OUTER_BOUND ( 'NONE', #66, .T. ) ;
#320 = EDGE_CURVE ( 'NONE', #287, #242, #183, .T. ) ;
#321 = CARTESIAN_POINT ( 'NONE',  ( 1.990144363140586139E-13, -6.980486755139912911E-15, 57.00000000000000000 ) ) ;
#322 = ADVANCED_FACE ( 'NONE', ( #13 ), #41, .F. ) ;
#323 = DIRECTION ( 'NONE',  ( 0.000000000000000000, -1.000000000000000000, 0.000000000000000000 ) ) ;
#324 = FILL_AREA_STYLE ('',( #102 ) ) ;
#325 = CARTESIAN_POINT ( 'NONE',  ( 4.275831445896960906E-32, 2.000000000000000000, 1.224646799147353885E-17 ) ) ;
#326 = CLOSED_SHELL ( 'NONE', ( #266, #74, #140, #148, #291, #204, #4, #6 ) ) ;
#327 = SURFACE_STYLE_USAGE ( .BOTH. , #187 ) ;
#328 = ORIENTED_EDGE ( 'NONE', *, *, #174, .F. ) ;
#329 = PLANE ( 'NONE',  #46 ) ;
#330 = VECTOR ( 'NONE', #172, 1000.000000000000000 ) ;
#331 = ORIENTED_EDGE ( 'NONE', *, *, #1, .F. ) ;
#332 = DIRECTION ( 'NONE',  ( -3.491481338843133355E-15, 1.224646799147347537E-16, -1.000000000000000000 ) ) ;
#333 =( NAMED_UNIT ( * ) SI_UNIT ( $, .STERADIAN. ) SOLID_ANGLE_UNIT ( ) );
#334 = DIRECTION ( 'NONE',  ( -3.491481338843133355E-15, 1.224646799147347537E-16, -1.000000000000000000 ) ) ;
#335 = DIRECTION ( 'NONE',  ( 3.491481338843133355E-15, -0.000000000000000000, 1.000000000000000000 ) ) ;
#336 = AXIS2_PLACEMENT_3D ( 'NONE', #79, #334, #257 ) ;
#337 = DIRECTION ( 'NONE',  ( -3.491481338843133355E-15, 1.224646799147353207E-16, -1.000000000000000000 ) ) ;
#338 = DIRECTION ( 'NONE',  ( 3.491481338843133355E-15, -1.224646799147353207E-16, 1.000000000000000000 ) ) ;
#339 = FILL_AREA_STYLE_COLOUR ( '', #196 ) ;
#340 = VERTEX_POINT ( 'NONE', #253 ) ;
#341 = MANIFOLD_SOLID_BREP ( 'Corps-Déplacer/Copier1[2]', #55 ) ;
#342 = MANIFOLD_SOLID_BREP ( 'Corps-Déplacer/Copier1[1]', #326 ) ;
#343 = ORIENTED_EDGE ( 'NONE', *, *, #168, .T. ) ;
ENDSEC;
END-ISO-10303-21;
