ISO-10303-21;
HEADER;
FILE_DESCRIPTION (( 'STEP AP214' ),
    '1' );
FILE_NAME ('67454.step',
    '2024-04-04T13:00:11',
    ( '' ),
    ( '' ),
    'SwSTEP 2.0',
    'SolidWorks 2022',
    '' );
FILE_SCHEMA (( 'AUTOMOTIVE_DESIGN' ));
ENDSEC;

DATA;
#1 = ORIENTED_EDGE ( 'NONE', *, *, #253, .F. ) ;
#2 = VECTOR ( 'NONE', #111, 1000.000000000000000 ) ;
#3 = PLANE ( 'NONE',  #43 ) ;
#4 = CYLINDRICAL_SURFACE ( 'NONE', #23, 1.799999999999999600 ) ;
#5 = PRESENTATION_LAYER_ASSIGNMENT (  '', '', ( #295 ) ) ;
#6 = ORIENTED_EDGE ( 'NONE', *, *, #79, .F. ) ;
#7 = FACE_OUTER_BOUND ( 'NONE', #220, .T. ) ;
#8 =( NAMED_UNIT ( * ) SI_UNIT ( $, .STERADIAN. ) SOLID_ANGLE_UNIT ( ) );
#9 = UNCERTAINTY_MEASURE_WITH_UNIT (LENGTH_MEASURE( 1.000000000000000082E-05 ), #304, 'distance_accuracy_value', 'NONE');
#10 = EDGE_LOOP ( 'NONE', ( #96, #66, #293, #1 ) ) ;
#11 = CARTESIAN_POINT ( 'NONE',  ( 8.780502649482344690E-14, -2.000000000000003553, 41.59999999999999432 ) ) ;
#12 = EDGE_CURVE ( 'NONE', #13, #122, #329, .T. ) ;
#13 = VERTEX_POINT ( 'NONE', #298 ) ;
#14 = PLANE ( 'NONE',  #192 ) ;
#15 =( NAMED_UNIT ( * ) PLANE_ANGLE_UNIT ( ) SI_UNIT ( $, .RADIAN. ) );
#16 = EDGE_LOOP ( 'NONE', ( #271, #94, #338, #190 ) ) ;
#17 = CARTESIAN_POINT ( 'NONE',  ( 2.793185071074506684E-14, -9.797174393178827630E-16, 8.000000000000000000 ) ) ;
#18 = EDGE_CURVE ( 'NONE', #268, #13, #139, .T. ) ;
#19 = DIRECTION ( 'NONE',  ( 3.491481338843133355E-15, -0.000000000000000000, 1.000000000000000000 ) ) ;
#20 = PRODUCT_DEFINITION_CONTEXT ( 'detailed design', #281, 'design' ) ;
#21 = ADVANCED_FACE ( 'NONE', ( #7 ), #109, .T. ) ;
#22 = CIRCLE ( 'NONE', #81, 1.999999999999995781 ) ;
#23 = AXIS2_PLACEMENT_3D ( 'NONE', #244, #161, #328 ) ;
#24 = ADVANCED_FACE ( 'NONE', ( #166 ), #134, .T. ) ;
#25 = DIRECTION ( 'NONE',  ( -3.491481338843133355E-15, 1.224646799147369477E-16, -1.000000000000000000 ) ) ;
#26 = CONICAL_SURFACE ( 'NONE', #213, 1.800000000000000044, 0.3450620389298184043 ) ;
#27 = VERTEX_POINT ( 'NONE', #319 ) ;
#28 = ORIENTED_EDGE ( 'NONE', *, *, #87, .F. ) ;
#29 = ORIENTED_EDGE ( 'NONE', *, *, #165, .T. ) ;
#30 = ADVANCED_FACE ( 'NONE', ( #90 ), #99, .T. ) ;
#31 = AXIS2_PLACEMENT_3D ( 'NONE', #17, #127, #145 ) ;
#32 = VERTEX_POINT ( 'NONE', #240 ) ;
#33 = APPLICATION_PROTOCOL_DEFINITION ( 'draft international standard', 'automotive_design', 1998, #281 ) ;
#34 = VERTEX_POINT ( 'NONE', #321 ) ;
#35 = FACE_OUTER_BOUND ( 'NONE', #84, .T. ) ;
#36 = CARTESIAN_POINT ( 'NONE',  ( 0.000000000000000000, 0.000000000000000000, 0.000000000000000000 ) ) ;
#37 = ORIENTED_EDGE ( 'NONE', *, *, #97, .F. ) ;
#38 = CARTESIAN_POINT ( 'NONE',  ( 0.000000000000000000, 0.000000000000000000, 0.000000000000000000 ) ) ;
#39 = SURFACE_STYLE_USAGE ( .BOTH. , #217 ) ;
#40 =( GEOMETRIC_REPRESENTATION_CONTEXT ( 3 ) GLOBAL_UNCERTAINTY_ASSIGNED_CONTEXT ( ( #219 ) ) GLOBAL_UNIT_ASSIGNED_CONTEXT ( ( #71, #15, #48 ) ) REPRESENTATION_CONTEXT ( 'NONE', 'WORKASPACE' ) );
#41 = VERTEX_POINT ( 'NONE', #80 ) ;
#42 = DIRECTION ( 'NONE',  ( 0.000000000000000000, 1.000000000000000000, 0.000000000000000000 ) ) ;
#43 = AXIS2_PLACEMENT_3D ( 'NONE', #212, #60, #160 ) ;
#44 = ORIENTED_EDGE ( 'NONE', *, *, #12, .T. ) ;
#45 = DIRECTION ( 'NONE',  ( 3.491481338843133355E-15, -1.224646799147353454E-16, 1.000000000000000000 ) ) ;
#46 = CIRCLE ( 'NONE', #116, 1.999999999999998224 ) ;
#47 = EDGE_LOOP ( 'NONE', ( #195, #69, #29, #186 ) ) ;
#48 =( NAMED_UNIT ( * ) SI_UNIT ( $, .STERADIAN. ) SOLID_ANGLE_UNIT ( ) );
#49 = ADVANCED_FACE ( 'NONE', ( #184 ), #3, .F. ) ;
#50 = DIRECTION ( 'NONE',  ( -1.000000000000000000, 0.000000000000000000, 3.491481338843133355E-15 ) ) ;
#51 = AXIS2_PLACEMENT_3D ( 'NONE', #179, #98, #248 ) ;
#52 = COLOUR_RGB ( '',1.000000000000000000, 1.000000000000000000, 1.000000000000000000 ) ;
#53 = COLOUR_RGB ( '',1.000000000000000000, 1.000000000000000000, 1.000000000000000000 ) ;
#54 = VECTOR ( 'NONE', #142, 1000.000000000000114 ) ;
#55 = COLOUR_RGB ( '',1.000000000000000000, 1.000000000000000000, 1.000000000000000000 ) ;
#56 = CARTESIAN_POINT ( 'NONE',  ( 1.800000000000027578, 0.000000000000000000, 7.999999999999992895 ) ) ;
#57 = PRESENTATION_LAYER_ASSIGNMENT (  '', '', ( #313 ) ) ;
#58 = DIRECTION ( 'NONE',  ( 0.000000000000000000, -1.000000000000000000, 0.000000000000000000 ) ) ;
#59 = DIRECTION ( 'NONE',  ( -3.491481338843133355E-15, 1.224646799147353454E-16, -1.000000000000000000 ) ) ;
#60 = DIRECTION ( 'NONE',  ( 3.491481338843133355E-15, -0.000000000000000000, 1.000000000000000000 ) ) ;
#61 = CARTESIAN_POINT ( 'NONE',  ( 8.551662891793910207E-31, 1.999999999999998224, 2.449293598294704935E-16 ) ) ;
#62 = UNCERTAINTY_MEASURE_WITH_UNIT (LENGTH_MEASURE( 1.000000000000000082E-05 ), #286, 'distance_accuracy_value', 'NONE');
#63 = CIRCLE ( 'NONE', #89, 1.800000000000000044 ) ;
#64 = ORIENTED_EDGE ( 'NONE', *, *, #337, .T. ) ;
#65 = CARTESIAN_POINT ( 'NONE',  ( 2.987457057411376340E-14, 1.999999999999994893, 8.556417083418352831 ) ) ;
#66 = ORIENTED_EDGE ( 'NONE', *, *, #131, .T. ) ;
#67 = CARTESIAN_POINT ( 'NONE',  ( 1.466422162314116009E-13, -5.143516556418884900E-15, 42.00000000000000000 ) ) ;
#68 = LINE ( 'NONE', #255, #201 ) ;
#69 = ORIENTED_EDGE ( 'NONE', *, *, #327, .T. ) ;
#70 = ORIENTED_EDGE ( 'NONE', *, *, #215, .T. ) ;
#71 =( LENGTH_UNIT ( ) NAMED_UNIT ( * ) SI_UNIT ( .MILLI., .METRE. ) );
#72 = EDGE_CURVE ( 'NONE', #273, #27, #204, .T. ) ;
#73 = CARTESIAN_POINT ( 'NONE',  ( 1.459439199636429616E-13, 1.599999999999978106, 42.00000000000000000 ) ) ;
#74 = AXIS2_PLACEMENT_3D ( 'NONE', #236, #209, #50 ) ;
#75 = MANIFOLD_SOLID_BREP ( 'Corps-Déplacer/Copier1[2]', #260 ) ;
#76 = FILL_AREA_STYLE ('',( #289 ) ) ;
#77 = CIRCLE ( 'NONE', #154, 1.799999999999998934 ) ;
#78 = DIRECTION ( 'NONE',  ( 1.000000000000000000, 0.000000000000000000, -3.854941057726240267E-15 ) ) ;
#79 = EDGE_CURVE ( 'NONE', #32, #150, #68, .T. ) ;
#80 = CARTESIAN_POINT ( 'NONE',  ( 1.800000000000026912, 0.000000000000000000, 7.999999999999992895 ) ) ;
#81 = AXIS2_PLACEMENT_3D ( 'NONE', #332, #120, #252 ) ;
#82 = EDGE_LOOP ( 'NONE', ( #291, #135, #205, #301 ) ) ;
#83 = DIRECTION ( 'NONE',  ( -3.491481338843133355E-15, 1.224646799147369477E-16, -1.000000000000000000 ) ) ;
#84 = EDGE_LOOP ( 'NONE', ( #227, #218 ) ) ;
#85 = PRESENTATION_STYLE_ASSIGNMENT (( #39 ) ) ;
#86 = VERTEX_POINT ( 'NONE', #121 ) ;
#87 = EDGE_CURVE ( 'NONE', #150, #34, #191, .T. ) ;
#88 = DIRECTION ( 'NONE',  ( -3.491481338843133355E-15, 1.224646799147353454E-16, -1.000000000000000000 ) ) ;
#89 = AXIS2_PLACEMENT_3D ( 'NONE', #241, #193, #114 ) ;
#90 = FACE_OUTER_BOUND ( 'NONE', #254, .T. ) ;
#91 = DIRECTION ( 'NONE',  ( 4.275831445896959482E-31, 1.000000000000000000, 1.224646799147353454E-16 ) ) ;
#92 = FACE_OUTER_BOUND ( 'NONE', #10, .T. ) ;
#93 = SURFACE_STYLE_FILL_AREA ( #275 ) ;
#94 = ORIENTED_EDGE ( 'NONE', *, *, #234, .T. ) ;
#95 = AXIS2_PLACEMENT_3D ( 'NONE', #263, #156, #130 ) ;
#96 = ORIENTED_EDGE ( 'NONE', *, *, #234, .F. ) ;
#97 = EDGE_CURVE ( 'NONE', #32, #268, #152, .T. ) ;
#98 = DIRECTION ( 'NONE',  ( -3.491481338843133355E-15, 1.224646799147353454E-16, -1.000000000000000000 ) ) ;
#99 = CONICAL_SURFACE ( 'NONE', #129, 1.999999999999998224, 0.7853981633974528309 ) ;
#100 = ORIENTED_EDGE ( 'NONE', *, *, #297, .T. ) ;
#101 = CARTESIAN_POINT ( 'NONE',  ( 1.466422162314116009E-13, -5.143516556418884900E-15, 42.00000000000000000 ) ) ;
#102 = PRODUCT_DEFINITION_FORMATION_WITH_SPECIFIED_SOURCE ( 'ANY', '', #259, .NOT_KNOWN. ) ;
#103 = PLANE ( 'NONE',  #74 ) ;
#104 = CARTESIAN_POINT ( 'NONE',  ( 2.913589353426741127E-14, 1.799999999999998934, 8.000000000000000000 ) ) ;
#105 = ADVANCED_FACE ( 'NONE', ( #228 ), #106, .T. ) ;
#106 = CONICAL_SURFACE ( 'NONE', #173, 1.999999999999998224, 0.7853981633974528309 ) ;
#107 = SURFACE_SIDE_STYLE ('',( #132 ) ) ;
#108 = EDGE_CURVE ( 'NONE', #198, #225, #233, .T. ) ;
#109 = CYLINDRICAL_SURFACE ( 'NONE', #177, 1.999999999999998224 ) ;
#110 = CLOSED_SHELL ( 'NONE', ( #105, #287, #24, #180, #155, #21, #115, #30 ) ) ;
#111 = DIRECTION ( 'NONE',  ( -3.491481338843133355E-15, 1.224646799147353454E-16, -1.000000000000000000 ) ) ;
#112 = AXIS2_PLACEMENT_3D ( 'NONE', #343, #25, #258 ) ;
#113 = DIRECTION ( 'NONE',  ( -3.491481338843133355E-15, 1.224646799147369477E-16, -1.000000000000000000 ) ) ;
#114 = DIRECTION ( 'NONE',  ( 0.000000000000000000, 1.000000000000000000, 0.000000000000000000 ) ) ;
#115 = ADVANCED_FACE ( 'NONE', ( #250 ), #26, .T. ) ;
#116 = AXIS2_PLACEMENT_3D ( 'NONE', #189, #83, #200 ) ;
#117 = DIRECTION ( 'NONE',  ( -3.491481338843133355E-15, 1.224646799147353454E-16, -1.000000000000000000 ) ) ;
#118 = SHAPE_DEFINITION_REPRESENTATION ( #231, #251 ) ;
#119 = EDGE_LOOP ( 'NONE', ( #37, #162, #276, #306 ) ) ;
#120 = DIRECTION ( 'NONE',  ( -3.491481338843133355E-15, 1.224646799147353454E-16, -1.000000000000000000 ) ) ;
#121 = CARTESIAN_POINT ( 'NONE',  ( -1.799999999999970957, 2.204364238465234590E-16, 8.000000000000007105 ) ) ;
#122 = VERTEX_POINT ( 'NONE', #65 ) ;
#123 = ORIENTED_EDGE ( 'NONE', *, *, #230, .F. ) ;
#124 = CIRCLE ( 'NONE', #112, 1.999999999999998224 ) ;
#125 = ORIENTED_EDGE ( 'NONE', *, *, #131, .F. ) ;
#126 = MECHANICAL_DESIGN_GEOMETRIC_PRESENTATION_REPRESENTATION (  '', ( #257 ), #40 ) ;
#127 = DIRECTION ( 'NONE',  ( -3.491481338843133355E-15, 1.224646799147353454E-16, -1.000000000000000000 ) ) ;
#128 = DIRECTION ( 'NONE',  ( 3.491481338843133355E-15, -0.000000000000000000, 1.000000000000000000 ) ) ;
#129 = AXIS2_PLACEMENT_3D ( 'NONE', #247, #113, #239 ) ;
#130 = DIRECTION ( 'NONE',  ( 0.000000000000000000, -1.000000000000000000, 0.000000000000000000 ) ) ;
#131 = EDGE_CURVE ( 'NONE', #27, #273, #308, .T. ) ;
#132 = SURFACE_STYLE_FILL_AREA ( #76 ) ;
#133 = AXIS2_PLACEMENT_3D ( 'NONE', #67, #170, #151 ) ;
#134 = CYLINDRICAL_SURFACE ( 'NONE', #309, 1.999999999999998224 ) ;
#135 = ORIENTED_EDGE ( 'NONE', *, *, #315, .F. ) ;
#136 = DIRECTION ( 'NONE',  ( 3.327098416510788793E-15, 0.3382550599108812839, 0.9410544694355827966 ) ) ;
#137 = ORIENTED_EDGE ( 'NONE', *, *, #253, .T. ) ;
#138 =( NAMED_UNIT ( * ) SI_UNIT ( $, .STERADIAN. ) SOLID_ANGLE_UNIT ( ) );
#139 = LINE ( 'NONE', #211, #54 ) ;
#140 = UNCERTAINTY_MEASURE_WITH_UNIT (LENGTH_MEASURE( 1.000000000000000082E-05 ), #224, 'distance_accuracy_value', 'NONE');
#141 = PRODUCT_DEFINITION ( 'UNKNOWN', '', #102, #20 ) ;
#142 = DIRECTION ( 'NONE',  ( -2.468850131082253511E-15, 0.7071067811865507924, -0.7071067811865441310 ) ) ;
#143 = DIRECTION ( 'NONE',  ( -3.491481338843133355E-15, 1.224646799147353454E-16, -1.000000000000000000 ) ) ;
#144 = PRODUCT_CONTEXT ( 'NONE', #238, 'mechanical' ) ;
#145 = DIRECTION ( 'NONE',  ( 0.000000000000000000, 1.000000000000000000, 0.000000000000000000 ) ) ;
#146 =( NAMED_UNIT ( * ) PLANE_ANGLE_UNIT ( ) SI_UNIT ( $, .RADIAN. ) );
#147 = PRESENTATION_STYLE_ASSIGNMENT (( #335 ) ) ;
#148 = ORIENTED_EDGE ( 'NONE', *, *, #87, .T. ) ;
#149 = DIRECTION ( 'NONE',  ( -4.275831445896959482E-31, -1.000000000000000000, -1.224646799147353454E-16 ) ) ;
#150 = VERTEX_POINT ( 'NONE', #11 ) ;
#151 = DIRECTION ( 'NONE',  ( 0.000000000000000000, -1.000000000000000000, 0.000000000000000000 ) ) ;
#152 = CIRCLE ( 'NONE', #133, 1.599999999999983435 ) ;
#153 = FACE_OUTER_BOUND ( 'NONE', #290, .T. ) ;
#154 = AXIS2_PLACEMENT_3D ( 'NONE', #339, #128, #78 ) ;
#155 = ADVANCED_FACE ( 'NONE', ( #272 ), #14, .T. ) ;
#156 = DIRECTION ( 'NONE',  ( 3.491481338843133355E-15, -1.224646799147353454E-16, 1.000000000000000000 ) ) ;
#157 = DIRECTION ( 'NONE',  ( 3.491481338843133355E-15, -0.000000000000000000, 1.000000000000000000 ) ) ;
#158 = CARTESIAN_POINT ( 'NONE',  ( 1.800000000000000044, 0.000000000000000000, -6.284666409917640040E-15 ) ) ;
#159 = DIRECTION ( 'NONE',  ( 4.275831445896958607E-31, 1.000000000000000000, 1.224646799147353454E-16 ) ) ;
#160 = DIRECTION ( 'NONE',  ( 1.000000000000000000, 0.000000000000000000, -3.491481338843133355E-15 ) ) ;
#161 = DIRECTION ( 'NONE',  ( 3.491481338843133355E-15, -0.000000000000000000, 1.000000000000000000 ) ) ;
#162 = ORIENTED_EDGE ( 'NONE', *, *, #79, .T. ) ;
#163 = CIRCLE ( 'NONE', #237, 1.599999999999983435 ) ;
#164 = DIRECTION ( 'NONE',  ( 0.000000000000000000, 0.000000000000000000, 1.000000000000000000 ) ) ;
#165 = EDGE_CURVE ( 'NONE', #122, #34, #285, .T. ) ;
#166 = FACE_OUTER_BOUND ( 'NONE', #202, .T. ) ;
#167 = DIRECTION ( 'NONE',  ( 3.491481338843133355E-15, -0.000000000000000000, 1.000000000000000000 ) ) ;
#168 = CARTESIAN_POINT ( 'NONE',  ( 0.000000000000000000, 0.000000000000000000, 0.000000000000000000 ) ) ;
#169 = EDGE_CURVE ( 'NONE', #34, #122, #22, .T. ) ;
#170 = DIRECTION ( 'NONE',  ( 3.491481338843133355E-15, -1.224646799147353454E-16, 1.000000000000000000 ) ) ;
#171 =( NAMED_UNIT ( * ) PLANE_ANGLE_UNIT ( ) SI_UNIT ( $, .RADIAN. ) );
#172 = DIRECTION ( 'NONE',  ( -3.491481338843133355E-15, 1.224646799147369477E-16, -1.000000000000000000 ) ) ;
#173 = AXIS2_PLACEMENT_3D ( 'NONE', #176, #172, #42 ) ;
#174 = PRESENTATION_LAYER_ASSIGNMENT (  '', '', ( #257 ) ) ;
#175 = ORIENTED_EDGE ( 'NONE', *, *, #230, .T. ) ;
#176 = CARTESIAN_POINT ( 'NONE',  ( 1.452456236958743223E-13, -5.094530684452989105E-15, 41.59999999999999432 ) ) ;
#177 = AXIS2_PLACEMENT_3D ( 'NONE', #294, #117, #325 ) ;
#178 = ORIENTED_EDGE ( 'NONE', *, *, #165, .F. ) ;
#179 = CARTESIAN_POINT ( 'NONE',  ( 2.987457057411376340E-14, -1.047858879337801990E-15, 8.556417083418352831 ) ) ;
#180 = ADVANCED_FACE ( 'NONE', ( #35 ), #330, .T. ) ;
#181 = CARTESIAN_POINT ( 'NONE',  ( 2.793185071074506684E-14, -1.800000000000000933, 8.000000000000000000 ) ) ;
#182 = CARTESIAN_POINT ( 'NONE',  ( -1.799999999999971623, 2.204364238465235083E-16, 8.000000000000007105 ) ) ;
#183 = DIRECTION ( 'NONE',  ( 3.491481338843133355E-15, -1.224646799147353454E-16, 1.000000000000000000 ) ) ;
#184 = FACE_OUTER_BOUND ( 'NONE', #265, .T. ) ;
#185 = VECTOR ( 'NONE', #312, 1000.000000000000000 ) ;
#186 = ORIENTED_EDGE ( 'NONE', *, *, #302, .F. ) ;
#187 = ORIENTED_EDGE ( 'NONE', *, *, #72, .F. ) ;
#188 = PRODUCT_RELATED_PRODUCT_CATEGORY ( 'part', '', ( #259 ) ) ;
#189 = CARTESIAN_POINT ( 'NONE',  ( 1.452456236958743223E-13, -5.094530684452989105E-15, 41.59999999999999432 ) ) ;
#190 = ORIENTED_EDGE ( 'NONE', *, *, #264, .F. ) ;
#191 = LINE ( 'NONE', #307, #256 ) ;
#192 = AXIS2_PLACEMENT_3D ( 'NONE', #221, #45, #149 ) ;
#193 = DIRECTION ( 'NONE',  ( -3.491481338843133355E-15, 1.224646799147353454E-16, -1.000000000000000000 ) ) ;
#194 = ADVANCED_FACE ( 'NONE', ( #92 ), #196, .T. ) ;
#195 = ORIENTED_EDGE ( 'NONE', *, *, #108, .F. ) ;
#196 = CYLINDRICAL_SURFACE ( 'NONE', #222, 1.799999999999999600 ) ;
#197 = AXIS2_PLACEMENT_3D ( 'NONE', #36, #164, #270 ) ;
#198 = VERTEX_POINT ( 'NONE', #104 ) ;
#199 = CARTESIAN_POINT ( 'NONE',  ( 2.793185071074506684E-14, 0.000000000000000000, 8.000000000000000000 ) ) ;
#200 = DIRECTION ( 'NONE',  ( 2.930988785010413267E-14, -1.000000000000000000, 0.000000000000000000 ) ) ;
#201 = VECTOR ( 'NONE', #203, 1000.000000000000114 ) ;
#202 = EDGE_LOOP ( 'NONE', ( #64, #148, #178, #333 ) ) ;
#203 = DIRECTION ( 'NONE',  ( -2.382254525458704453E-15, -0.7071067811865506814, -0.7071067811865443531 ) ) ;
#204 = CIRCLE ( 'NONE', #322, 1.800000000000000044 ) ;
#205 = ORIENTED_EDGE ( 'NONE', *, *, #302, .T. ) ;
#206 = CARTESIAN_POINT ( 'NONE',  ( 2.793185071074506684E-14, 0.000000000000000000, 8.000000000000000000 ) ) ;
#207 = ADVANCED_FACE ( 'NONE', ( #153 ), #103, .F. ) ;
#208 = SURFACE_STYLE_USAGE ( .BOTH. , #107 ) ;
#209 = DIRECTION ( 'NONE',  ( -3.491481338843133355E-15, 0.000000000000000000, -1.000000000000000000 ) ) ;
#210 = FACE_OUTER_BOUND ( 'NONE', #47, .T. ) ;
#211 = CARTESIAN_POINT ( 'NONE',  ( 1.452456236958743223E-13, 1.999999999999993117, 41.59999999999999432 ) ) ;
#212 = CARTESIAN_POINT ( 'NONE',  ( 6.413747168845441632E-32, 1.800000000000000044, 1.836970198721030674E-17 ) ) ;
#213 = AXIS2_PLACEMENT_3D ( 'NONE', #311, #274, #326 ) ;
#214 = CARTESIAN_POINT ( 'NONE',  ( 2.815228713459159200E-14, 1.799999999999998934, 8.000000000000000000 ) ) ;
#215 = EDGE_CURVE ( 'NONE', #41, #86, #77, .T. ) ;
#216 = DIRECTION ( 'NONE',  ( 1.000000000000000000, 0.000000000000000000, -3.491481338843133355E-15 ) ) ;
#217 = SURFACE_SIDE_STYLE ('',( #93 ) ) ;
#218 = ORIENTED_EDGE ( 'NONE', *, *, #108, .T. ) ;
#219 = UNCERTAINTY_MEASURE_WITH_UNIT (LENGTH_MEASURE( 1.000000000000000082E-05 ), #71, 'distance_accuracy_value', 'NONE');
#220 = EDGE_LOOP ( 'NONE', ( #28, #100, #44, #249 ) ) ;
#221 = CARTESIAN_POINT ( 'NONE',  ( 1.466422162314116009E-13, -5.143516556418883322E-15, 42.00000000000000000 ) ) ;
#222 = AXIS2_PLACEMENT_3D ( 'NONE', #199, #277, #317 ) ;
#223 = FILL_AREA_STYLE_COLOUR ( '', #52 ) ;
#224 =( LENGTH_UNIT ( ) NAMED_UNIT ( * ) SI_UNIT ( .MILLI., .METRE. ) );
#225 = VERTEX_POINT ( 'NONE', #314 ) ;
#226 = SURFACE_SIDE_STYLE ('',( #303 ) ) ;
#227 = ORIENTED_EDGE ( 'NONE', *, *, #315, .T. ) ;
#228 = FACE_OUTER_BOUND ( 'NONE', #119, .T. ) ;
#229 = AXIS2_PLACEMENT_3D ( 'NONE', #299, #143, #91 ) ;
#230 = EDGE_CURVE ( 'NONE', #268, #32, #163, .T. ) ;
#231 = PRODUCT_DEFINITION_SHAPE ( 'NONE', 'NONE',  #141 ) ;
#232 = DIRECTION ( 'NONE',  ( 3.285674118869262999E-15, -0.3382550599108815059, 0.9410544694355826856 ) ) ;
#233 = CIRCLE ( 'NONE', #31, 1.800000000000000044 ) ;
#234 = EDGE_CURVE ( 'NONE', #27, #86, #340, .T. ) ;
#235 = LINE ( 'NONE', #181, #316 ) ;
#236 = CARTESIAN_POINT ( 'NONE',  ( 2.793185071074506684E-14, 1.799999999999998934, 8.000000000000000000 ) ) ;
#237 = AXIS2_PLACEMENT_3D ( 'NONE', #101, #183, #58 ) ;
#238 = APPLICATION_CONTEXT ( 'automotive_design' ) ;
#239 = DIRECTION ( 'NONE',  ( 0.000000000000000000, 1.000000000000000000, 0.000000000000000000 ) ) ;
#240 = CARTESIAN_POINT ( 'NONE',  ( 1.461643563874894899E-13, -1.599999999999988542, 42.00000000000000000 ) ) ;
#241 = CARTESIAN_POINT ( 'NONE',  ( 2.793185071074506684E-14, -9.797174393178827630E-16, 8.000000000000000000 ) ) ;
#242 = DIRECTION ( 'NONE',  ( 3.491481338843133355E-15, -0.000000000000000000, 1.000000000000000000 ) ) ;
#243 = MECHANICAL_DESIGN_GEOMETRIC_PRESENTATION_REPRESENTATION (  '', ( #295 ), #336 ) ;
#244 = CARTESIAN_POINT ( 'NONE',  ( 2.793185071074506684E-14, 0.000000000000000000, 8.000000000000000000 ) ) ;
#245 = ORIENTED_EDGE ( 'NONE', *, *, #97, .T. ) ;
#246 =( GEOMETRIC_REPRESENTATION_CONTEXT ( 3 ) GLOBAL_UNCERTAINTY_ASSIGNED_CONTEXT ( ( #140 ) ) GLOBAL_UNIT_ASSIGNED_CONTEXT ( ( #224, #171, #8 ) ) REPRESENTATION_CONTEXT ( 'NONE', 'WORKASPACE' ) );
#247 = CARTESIAN_POINT ( 'NONE',  ( 1.452456236958743223E-13, -5.094530684452989105E-15, 41.59999999999999432 ) ) ;
#248 = DIRECTION ( 'NONE',  ( 0.000000000000000000, 1.000000000000000000, 0.000000000000000000 ) ) ;
#249 = ORIENTED_EDGE ( 'NONE', *, *, #169, .F. ) ;
#250 = FACE_OUTER_BOUND ( 'NONE', #82, .T. ) ;
#251 = ADVANCED_BREP_SHAPE_REPRESENTATION ( '67454', ( #305, #75, #197 ), #246 ) ;
#252 = DIRECTION ( 'NONE',  ( 0.000000000000000000, 1.000000000000000000, 0.000000000000000000 ) ) ;
#253 = EDGE_CURVE ( 'NONE', #86, #41, #320, .T. ) ;
#254 = EDGE_LOOP ( 'NONE', ( #6, #123, #334, #310 ) ) ;
#255 = CARTESIAN_POINT ( 'NONE',  ( 1.454905530557037926E-13, -2.000000000000003553, 41.59999999999999432 ) ) ;
#256 = VECTOR ( 'NONE', #88, 1000.000000000000000 ) ;
#257 = STYLED_ITEM ( 'NONE', ( #147 ), #75 ) ;
#258 = DIRECTION ( 'NONE',  ( -2.842170943040400743E-14, -1.000000000000000000, 0.000000000000000000 ) ) ;
#259 = PRODUCT ( '67454', '67454', '', ( #144 ) ) ;
#260 = CLOSED_SHELL ( 'NONE', ( #331, #194, #207, #49 ) ) ;
#261 = CONICAL_SURFACE ( 'NONE', #95, 1.800000000000000044, 0.3450620389298184043 ) ;
#262 = LINE ( 'NONE', #56, #185 ) ;
#263 = CARTESIAN_POINT ( 'NONE',  ( 2.793185071074506684E-14, -9.797174393178827630E-16, 8.000000000000000000 ) ) ;
#264 = EDGE_CURVE ( 'NONE', #273, #41, #262, .T. ) ;
#265 = EDGE_LOOP ( 'NONE', ( #187, #125 ) ) ;
#266 = CARTESIAN_POINT ( 'NONE',  ( 0.000000000000000000, 0.000000000000000000, 0.000000000000000000 ) ) ;
#267 =( NAMED_UNIT ( * ) SI_UNIT ( $, .STERADIAN. ) SOLID_ANGLE_UNIT ( ) );
#268 = VERTEX_POINT ( 'NONE', #73 ) ;
#269 = VECTOR ( 'NONE', #19, 1000.000000000000000 ) ;
#270 = DIRECTION ( 'NONE',  ( 1.000000000000000000, 0.000000000000000000, 0.000000000000000000 ) ) ;
#271 = ORIENTED_EDGE ( 'NONE', *, *, #72, .T. ) ;
#272 = FACE_OUTER_BOUND ( 'NONE', #279, .T. ) ;
#273 = VERTEX_POINT ( 'NONE', #158 ) ;
#274 = DIRECTION ( 'NONE',  ( 3.491481338843133355E-15, -1.224646799147353454E-16, 1.000000000000000000 ) ) ;
#275 = FILL_AREA_STYLE ('',( #300 ) ) ;
#276 = ORIENTED_EDGE ( 'NONE', *, *, #337, .F. ) ;
#277 = DIRECTION ( 'NONE',  ( 3.491481338843133355E-15, -0.000000000000000000, 1.000000000000000000 ) ) ;
#278 = AXIS2_PLACEMENT_3D ( 'NONE', #206, #157, #288 ) ;
#279 = EDGE_LOOP ( 'NONE', ( #175, #245 ) ) ;
#280 = DIRECTION ( 'NONE',  ( 1.000000000000000000, 0.000000000000000000, -3.491481338843133355E-15 ) ) ;
#281 = APPLICATION_CONTEXT ( 'automotive_design' ) ;
#282 =( GEOMETRIC_REPRESENTATION_CONTEXT ( 3 ) GLOBAL_UNCERTAINTY_ASSIGNED_CONTEXT ( ( #9 ) ) GLOBAL_UNIT_ASSIGNED_CONTEXT ( ( #304, #146, #267 ) ) REPRESENTATION_CONTEXT ( 'NONE', 'WORKASPACE' ) );
#283 = FILL_AREA_STYLE ('',( #223 ) ) ;
#284 = VECTOR ( 'NONE', #136, 1000.000000000000114 ) ;
#285 = CIRCLE ( 'NONE', #51, 1.999999999999995781 ) ;
#286 =( LENGTH_UNIT ( ) NAMED_UNIT ( * ) SI_UNIT ( .MILLI., .METRE. ) );
#287 = ADVANCED_FACE ( 'NONE', ( #210 ), #261, .T. ) ;
#288 = DIRECTION ( 'NONE',  ( 1.000000000000000000, 0.000000000000000000, -3.854941057726240267E-15 ) ) ;
#289 = FILL_AREA_STYLE_COLOUR ( '', #55 ) ;
#290 = EDGE_LOOP ( 'NONE', ( #70, #137 ) ) ;
#291 = ORIENTED_EDGE ( 'NONE', *, *, #327, .F. ) ;
#292 = MECHANICAL_DESIGN_GEOMETRIC_PRESENTATION_REPRESENTATION (  '', ( #313 ), #282 ) ;
#293 = ORIENTED_EDGE ( 'NONE', *, *, #264, .T. ) ;
#294 = CARTESIAN_POINT ( 'NONE',  ( 0.000000000000000000, 0.000000000000000000, 0.000000000000000000 ) ) ;
#295 = STYLED_ITEM ( 'NONE', ( #318 ), #305 ) ;
#296 = FACE_OUTER_BOUND ( 'NONE', #16, .T. ) ;
#297 = EDGE_CURVE ( 'NONE', #150, #13, #124, .T. ) ;
#298 = CARTESIAN_POINT ( 'NONE',  ( 8.756009713499403971E-14, 1.999999999999993117, 41.59999999999999432 ) ) ;
#299 = CARTESIAN_POINT ( 'NONE',  ( 2.793185071074506684E-14, 1.799999999999998934, 8.000000000000000000 ) ) ;
#300 = FILL_AREA_STYLE_COLOUR ( '', #53 ) ;
#301 = ORIENTED_EDGE ( 'NONE', *, *, #169, .T. ) ;
#302 = EDGE_CURVE ( 'NONE', #225, #34, #235, .T. ) ;
#303 = SURFACE_STYLE_FILL_AREA ( #283 ) ;
#304 =( LENGTH_UNIT ( ) NAMED_UNIT ( * ) SI_UNIT ( .MILLI., .METRE. ) );
#305 = MANIFOLD_SOLID_BREP ( 'Corps-Déplacer/Copier1[1]', #110 ) ;
#306 = ORIENTED_EDGE ( 'NONE', *, *, #18, .F. ) ;
#307 = CARTESIAN_POINT ( 'NONE',  ( 2.449293598294696061E-16, -1.999999999999998224, -2.449293598294712824E-16 ) ) ;
#308 = CIRCLE ( 'NONE', #342, 1.800000000000000044 ) ;
#309 = AXIS2_PLACEMENT_3D ( 'NONE', #168, #59, #159 ) ;
#310 = ORIENTED_EDGE ( 'NONE', *, *, #297, .F. ) ;
#311 = CARTESIAN_POINT ( 'NONE',  ( 2.793185071074506684E-14, -9.797174393178827630E-16, 8.000000000000000000 ) ) ;
#312 = DIRECTION ( 'NONE',  ( 3.491481338843133355E-15, -0.000000000000000000, 1.000000000000000000 ) ) ;
#313 = STYLED_ITEM ( 'NONE', ( #85 ), #251 ) ;
#314 = CARTESIAN_POINT ( 'NONE',  ( 2.890321064242941196E-14, -1.800000000000000933, 8.000000000000000000 ) ) ;
#315 = EDGE_CURVE ( 'NONE', #225, #198, #63, .T. ) ;
#316 = VECTOR ( 'NONE', #232, 999.9999999999998863 ) ;
#317 = DIRECTION ( 'NONE',  ( 1.000000000000000000, 0.000000000000000000, -3.854941057726238689E-15 ) ) ;
#318 = PRESENTATION_STYLE_ASSIGNMENT (( #208 ) ) ;
#319 = CARTESIAN_POINT ( 'NONE',  ( -1.800000000000000044, 2.204364238465252832E-16, 6.284666409917640040E-15 ) ) ;
#320 = CIRCLE ( 'NONE', #278, 1.799999999999998934 ) ;
#321 = CARTESIAN_POINT ( 'NONE',  ( 8.780502649482347214E-14, -1.999999999999996669, 8.556417083418352831 ) ) ;
#322 = AXIS2_PLACEMENT_3D ( 'NONE', #266, #242, #216 ) ;
#323 = LINE ( 'NONE', #214, #284 ) ;
#324 = APPLICATION_PROTOCOL_DEFINITION ( 'draft international standard', 'automotive_design', 1998, #238 ) ;
#325 = DIRECTION ( 'NONE',  ( 4.275831445896958607E-31, 1.000000000000000000, 1.224646799147353454E-16 ) ) ;
#326 = DIRECTION ( 'NONE',  ( 0.000000000000000000, -1.000000000000000000, 0.000000000000000000 ) ) ;
#327 = EDGE_CURVE ( 'NONE', #198, #122, #323, .T. ) ;
#328 = DIRECTION ( 'NONE',  ( 1.000000000000000000, 0.000000000000000000, -3.854941057726238689E-15 ) ) ;
#329 = LINE ( 'NONE', #61, #2 ) ;
#330 = PLANE ( 'NONE',  #229 ) ;
#331 = ADVANCED_FACE ( 'NONE', ( #296 ), #4, .T. ) ;
#332 = CARTESIAN_POINT ( 'NONE',  ( 2.987457057411376340E-14, -1.047858879337801990E-15, 8.556417083418352831 ) ) ;
#333 = ORIENTED_EDGE ( 'NONE', *, *, #12, .F. ) ;
#334 = ORIENTED_EDGE ( 'NONE', *, *, #18, .T. ) ;
#335 = SURFACE_STYLE_USAGE ( .BOTH. , #226 ) ;
#336 =( GEOMETRIC_REPRESENTATION_CONTEXT ( 3 ) GLOBAL_UNCERTAINTY_ASSIGNED_CONTEXT ( ( #62 ) ) GLOBAL_UNIT_ASSIGNED_CONTEXT ( ( #286, #341, #138 ) ) REPRESENTATION_CONTEXT ( 'NONE', 'WORKASPACE' ) );
#337 = EDGE_CURVE ( 'NONE', #13, #150, #46, .T. ) ;
#338 = ORIENTED_EDGE ( 'NONE', *, *, #215, .F. ) ;
#339 = CARTESIAN_POINT ( 'NONE',  ( 2.793185071074506684E-14, 0.000000000000000000, 8.000000000000000000 ) ) ;
#340 = LINE ( 'NONE', #182, #269 ) ;
#341 =( NAMED_UNIT ( * ) PLANE_ANGLE_UNIT ( ) SI_UNIT ( $, .RADIAN. ) );
#342 = AXIS2_PLACEMENT_3D ( 'NONE', #38, #167, #280 ) ;
#343 = CARTESIAN_POINT ( 'NONE',  ( 1.452456236958743223E-13, -5.094530684452989105E-15, 41.59999999999999432 ) ) ;
ENDSEC;
END-ISO-10303-21;
