ISO-10303-21;
HEADER;
FILE_DESCRIPTION (( 'STEP AP214' ),
    '1' );
FILE_NAME ('67453.step',
    '2024-04-04T13:00:10',
    ( '' ),
    ( '' ),
    'SwSTEP 2.0',
    'SolidWorks 2022',
    '' );
FILE_SCHEMA (( 'AUTOMOTIVE_DESIGN' ));
ENDSEC;

DATA;
#1 = ORIENTED_EDGE ( 'NONE', *, *, #294, .F. ) ;
#2 = AXIS2_PLACEMENT_3D ( 'NONE', #198, #117, #36 ) ;
#3 = ORIENTED_EDGE ( 'NONE', *, *, #300, .F. ) ;
#4 = AXIS2_PLACEMENT_3D ( 'NONE', #64, #341, #255 ) ;
#5 = APPLICATION_CONTEXT ( 'automotive_design' ) ;
#6 = ADVANCED_FACE ( 'NONE', ( #178 ), #210, .F. ) ;
#7 = DIRECTION ( 'NONE',  ( -4.275831445896959482E-31, -1.000000000000000000, -1.224646799147353454E-16 ) ) ;
#8 = EDGE_CURVE ( 'NONE', #183, #131, #175, .T. ) ;
#9 = CARTESIAN_POINT ( 'NONE',  ( 1.500000000000023093, 0.000000000000000000, 6.749999999999994671 ) ) ;
#10 = PRESENTATION_STYLE_ASSIGNMENT (( #138 ) ) ;
#11 = AXIS2_PLACEMENT_3D ( 'NONE', #113, #33, #136 ) ;
#12 =( NAMED_UNIT ( * ) PLANE_ANGLE_UNIT ( ) SI_UNIT ( $, .RADIAN. ) );
#13 = SURFACE_STYLE_FILL_AREA ( #250 ) ;
#14 = FILL_AREA_STYLE_COLOUR ( '', #74 ) ;
#15 =( LENGTH_UNIT ( ) NAMED_UNIT ( * ) SI_UNIT ( .MILLI., .METRE. ) );
#16 = FACE_OUTER_BOUND ( 'NONE', #27, .T. ) ;
#17 = CIRCLE ( 'NONE', #67, 1.999999999999996225 ) ;
#18 = CARTESIAN_POINT ( 'NONE',  ( 1.452456236958743476E-13, 1.999999999999993117, 41.60000000000000142 ) ) ;
#19 = CARTESIAN_POINT ( 'NONE',  ( 2.356749903719115015E-14, -8.266365894244636305E-16, 6.750000000000000000 ) ) ;
#20 = EDGE_CURVE ( 'NONE', #339, #101, #318, .T. ) ;
#21 =( NAMED_UNIT ( * ) PLANE_ANGLE_UNIT ( ) SI_UNIT ( $, .RADIAN. ) );
#22 = FACE_OUTER_BOUND ( 'NONE', #268, .T. ) ;
#23 = DIRECTION ( 'NONE',  ( 0.000000000000000000, 1.000000000000000000, 0.000000000000000000 ) ) ;
#24 = CARTESIAN_POINT ( 'NONE',  ( 1.454905530557038179E-13, -2.000000000000003553, 41.60000000000000142 ) ) ;
#25 = VECTOR ( 'NONE', #61, 1000.000000000000114 ) ;
#26 = ORIENTED_EDGE ( 'NONE', *, *, #139, .T. ) ;
#27 = EDGE_LOOP ( 'NONE', ( #51, #229, #291, #132 ) ) ;
#28 = EDGE_CURVE ( 'NONE', #289, #322, #213, .T. ) ;
#29 = VERTEX_POINT ( 'NONE', #218 ) ;
#30 = CIRCLE ( 'NONE', #11, 1.499999999999999778 ) ;
#31 = ORIENTED_EDGE ( 'NONE', *, *, #93, .T. ) ;
#32 = CARTESIAN_POINT ( 'NONE',  ( 1.466422162314116009E-13, -5.143516556418883322E-15, 42.00000000000000000 ) ) ;
#33 = DIRECTION ( 'NONE',  ( 3.491481338843133355E-15, -0.000000000000000000, 1.000000000000000000 ) ) ;
#34 = AXIS2_PLACEMENT_3D ( 'NONE', #169, #92, #247 ) ;
#35 = CYLINDRICAL_SURFACE ( 'NONE', #40, 1.999999999999998224 ) ;
#36 = DIRECTION ( 'NONE',  ( 0.000000000000000000, 1.000000000000000000, 0.000000000000000000 ) ) ;
#37 = SURFACE_STYLE_USAGE ( .BOTH. , #223 ) ;
#38 = DIRECTION ( 'NONE',  ( -3.491481338843133355E-15, 1.224646799147353454E-16, -1.000000000000000000 ) ) ;
#39 = CARTESIAN_POINT ( 'NONE',  ( 1.466422162314116009E-13, -5.143516556418884900E-15, 42.00000000000000000 ) ) ;
#40 = AXIS2_PLACEMENT_3D ( 'NONE', #189, #224, #140 ) ;
#41 = DIRECTION ( 'NONE',  ( -1.000000000000000000, 0.000000000000000000, 3.491481338843133355E-15 ) ) ;
#42 = ORIENTED_EDGE ( 'NONE', *, *, #324, .T. ) ;
#43 = PRODUCT_RELATED_PRODUCT_CATEGORY ( 'part', '', ( #265 ) ) ;
#44 = CARTESIAN_POINT ( 'NONE',  ( 1.452456236958743476E-13, -5.094530684452989894E-15, 41.60000000000000142 ) ) ;
#45 = ORIENTED_EDGE ( 'NONE', *, *, #300, .T. ) ;
#46 = EDGE_CURVE ( 'NONE', #281, #76, #197, .T. ) ;
#47 = DIRECTION ( 'NONE',  ( -2.468850131082264555E-15, 0.7071067811865479058, -0.7071067811865472397 ) ) ;
#48 = ORIENTED_EDGE ( 'NONE', *, *, #294, .T. ) ;
#49 = AXIS2_PLACEMENT_3D ( 'NONE', #226, #313, #121 ) ;
#50 =( NAMED_UNIT ( * ) PLANE_ANGLE_UNIT ( ) SI_UNIT ( $, .RADIAN. ) );
#51 = ORIENTED_EDGE ( 'NONE', *, *, #20, .F. ) ;
#52 = AXIS2_PLACEMENT_3D ( 'NONE', #86, #192, #82 ) ;
#53 = STYLED_ITEM ( 'NONE', ( #10 ), #319 ) ;
#54 = PLANE ( 'NONE',  #83 ) ;
#55 = VECTOR ( 'NONE', #195, 1000.000000000000000 ) ;
#56 = SURFACE_SIDE_STYLE ('',( #249 ) ) ;
#57 = DIRECTION ( 'NONE',  ( 1.000000000000000000, 0.000000000000000000, -3.469446951953616950E-15 ) ) ;
#58 = VECTOR ( 'NONE', #47, 1000.000000000000000 ) ;
#59 =( LENGTH_UNIT ( ) NAMED_UNIT ( * ) SI_UNIT ( .MILLI., .METRE. ) );
#60 = DIRECTION ( 'NONE',  ( 3.491481338843133355E-15, -1.224646799147353454E-16, 1.000000000000000000 ) ) ;
#61 = DIRECTION ( 'NONE',  ( 3.327098416510788004E-15, 0.3382550599108817835, 0.9410544694355825746 ) ) ;
#62 = DIRECTION ( 'NONE',  ( 1.000000000000000000, 0.000000000000000000, -3.491481338843133355E-15 ) ) ;
#63 = DIRECTION ( 'NONE',  ( 0.000000000000000000, -1.000000000000000000, 0.000000000000000000 ) ) ;
#64 = CARTESIAN_POINT ( 'NONE',  ( 0.000000000000000000, 0.000000000000000000, 0.000000000000000000 ) ) ;
#65 = PRODUCT_DEFINITION ( 'UNKNOWN', '', #282, #79 ) ;
#66 = DIRECTION ( 'NONE',  ( 3.491481338843133355E-15, -1.224646799147353454E-16, 1.000000000000000000 ) ) ;
#67 = AXIS2_PLACEMENT_3D ( 'NONE', #271, #325, #328 ) ;
#68 = CARTESIAN_POINT ( 'NONE',  ( 1.452456236958743476E-13, -5.094530684452989894E-15, 41.60000000000000142 ) ) ;
#69 = ORIENTED_EDGE ( 'NONE', *, *, #78, .T. ) ;
#70 = CARTESIAN_POINT ( 'NONE',  ( 2.356749903719115015E-14, 1.499999999999998890, 6.750000000000000000 ) ) ;
#71 = ORIENTED_EDGE ( 'NONE', *, *, #46, .F. ) ;
#72 = DIRECTION ( 'NONE',  ( 1.000000000000000000, 0.000000000000000000, 0.000000000000000000 ) ) ;
#73 = MECHANICAL_DESIGN_GEOMETRIC_PRESENTATION_REPRESENTATION (  '', ( #77 ), #184 ) ;
#74 = COLOUR_RGB ( '',1.000000000000000000, 1.000000000000000000, 1.000000000000000000 ) ;
#75 = EDGE_LOOP ( 'NONE', ( #1, #343, #126, #31 ) ) ;
#76 = VERTEX_POINT ( 'NONE', #80 ) ;
#77 = STYLED_ITEM ( 'NONE', ( #144 ), #111 ) ;
#78 = EDGE_CURVE ( 'NONE', #322, #289, #299, .T. ) ;
#79 = PRODUCT_DEFINITION_CONTEXT ( 'detailed design', #5, 'design' ) ;
#80 = CARTESIAN_POINT ( 'NONE',  ( 1.500000000000022649, 0.000000000000000000, 6.749999999999994671 ) ) ;
#81 = MANIFOLD_SOLID_BREP ( 'Corps-Déplacer/Copier1[1]', #149 ) ;
#82 = DIRECTION ( 'NONE',  ( 0.000000000000000000, -1.000000000000000000, 0.000000000000000000 ) ) ;
#83 = AXIS2_PLACEMENT_3D ( 'NONE', #32, #135, #7 ) ;
#84 = LINE ( 'NONE', #304, #103 ) ;
#85 = DIRECTION ( 'NONE',  ( -3.491481338843133355E-15, 1.224646799147371450E-16, -1.000000000000000000 ) ) ;
#86 = CARTESIAN_POINT ( 'NONE',  ( 2.356749903719115015E-14, -8.266365894244636305E-16, 6.750000000000000000 ) ) ;
#87 = EDGE_CURVE ( 'NONE', #29, #102, #219, .T. ) ;
#88 = CARTESIAN_POINT ( 'NONE',  ( -1.499999999999999778, 1.836970198721044232E-16, 5.237222008264699244E-15 ) ) ;
#89 = VECTOR ( 'NONE', #208, 1000.000000000000000 ) ;
#90 = LINE ( 'NONE', #308, #25 ) ;
#91 = EDGE_LOOP ( 'NONE', ( #316, #239, #187, #71 ) ) ;
#92 = DIRECTION ( 'NONE',  ( 3.491481338843133355E-15, -0.000000000000000000, 1.000000000000000000 ) ) ;
#93 = EDGE_CURVE ( 'NONE', #131, #263, #17, .T. ) ;
#94 = FACE_OUTER_BOUND ( 'NONE', #266, .T. ) ;
#95 = ORIENTED_EDGE ( 'NONE', *, *, #8, .T. ) ;
#96 = AXIS2_PLACEMENT_3D ( 'NONE', #335, #196, #279 ) ;
#97 = LINE ( 'NONE', #205, #89 ) ;
#98 = ORIENTED_EDGE ( 'NONE', *, *, #170, .T. ) ;
#99 = AXIS2_PLACEMENT_3D ( 'NONE', #203, #232, #100 ) ;
#100 = DIRECTION ( 'NONE',  ( 1.000000000000000000, 0.000000000000000000, -3.469446951953615767E-15 ) ) ;
#101 = VERTEX_POINT ( 'NONE', #251 ) ;
#102 = VERTEX_POINT ( 'NONE', #88 ) ;
#103 = VECTOR ( 'NONE', #148, 1000.000000000000000 ) ;
#104 = ADVANCED_FACE ( 'NONE', ( #273 ), #248, .T. ) ;
#105 = AXIS2_PLACEMENT_3D ( 'NONE', #306, #245, #57 ) ;
#106 = ORIENTED_EDGE ( 'NONE', *, *, #20, .T. ) ;
#107 = ADVANCED_FACE ( 'NONE', ( #171 ), #35, .T. ) ;
#108 = ORIENTED_EDGE ( 'NONE', *, *, #8, .F. ) ;
#109 = AXIS2_PLACEMENT_3D ( 'NONE', #274, #60, #63 ) ;
#110 = ADVANCED_FACE ( 'NONE', ( #301 ), #173, .T. ) ;
#111 = ADVANCED_BREP_SHAPE_REPRESENTATION ( '67453', ( #81, #319, #272 ), #190 ) ;
#112 = AXIS2_PLACEMENT_3D ( 'NONE', #285, #182, #338 ) ;
#113 = CARTESIAN_POINT ( 'NONE',  ( 0.000000000000000000, 0.000000000000000000, 0.000000000000000000 ) ) ;
#114 = STYLED_ITEM ( 'NONE', ( #193 ), #81 ) ;
#115 =( LENGTH_UNIT ( ) NAMED_UNIT ( * ) SI_UNIT ( .MILLI., .METRE. ) );
#116 = CARTESIAN_POINT ( 'NONE',  ( 2.356749903719115015E-14, 0.000000000000000000, 6.750000000000000000 ) ) ;
#117 = DIRECTION ( 'NONE',  ( -3.491481338843133355E-15, 1.224646799147353454E-16, -1.000000000000000000 ) ) ;
#118 = AXIS2_PLACEMENT_3D ( 'NONE', #227, #85, #331 ) ;
#119 = DIRECTION ( 'NONE',  ( 0.000000000000000000, 1.000000000000000000, 0.000000000000000000 ) ) ;
#120 = AXIS2_PLACEMENT_3D ( 'NONE', #116, #246, #278 ) ;
#121 = DIRECTION ( 'NONE',  ( 4.275831445896959482E-31, 1.000000000000000000, 1.224646799147353454E-16 ) ) ;
#122 = EDGE_LOOP ( 'NONE', ( #243, #48, #26, #296 ) ) ;
#123 = CARTESIAN_POINT ( 'NONE',  ( 2.842429869561295464E-14, 1.999999999999995337, 8.141042708545896289 ) ) ;
#124 = ORIENTED_EDGE ( 'NONE', *, *, #87, .F. ) ;
#125 = CARTESIAN_POINT ( 'NONE',  ( 8.707989055557306461E-14, -2.000000000000003553, 41.60000000000000142 ) ) ;
#126 = ORIENTED_EDGE ( 'NONE', *, *, #267, .T. ) ;
#127 = ORIENTED_EDGE ( 'NONE', *, *, #231, .F. ) ;
#128 = CARTESIAN_POINT ( 'NONE',  ( 0.000000000000000000, 0.000000000000000000, 0.000000000000000000 ) ) ;
#129 = EDGE_CURVE ( 'NONE', #29, #76, #143, .T. ) ;
#130 = CONICAL_SURFACE ( 'NONE', #112, 1.499999999999999778, 0.3450620389298190149 ) ;
#131 = VERTEX_POINT ( 'NONE', #165 ) ;
#132 = ORIENTED_EDGE ( 'NONE', *, *, #170, .F. ) ;
#133 = CONICAL_SURFACE ( 'NONE', #96, 1.999999999999998224, 0.7853981633974485010 ) ;
#134 = UNCERTAINTY_MEASURE_WITH_UNIT (LENGTH_MEASURE( 1.000000000000000082E-05 ), #115, 'distance_accuracy_value', 'NONE');
#135 = DIRECTION ( 'NONE',  ( 3.491481338843133355E-15, -1.224646799147353454E-16, 1.000000000000000000 ) ) ;
#136 = DIRECTION ( 'NONE',  ( 1.000000000000000000, 0.000000000000000000, -3.491481338843133355E-15 ) ) ;
#137 =( GEOMETRIC_REPRESENTATION_CONTEXT ( 3 ) GLOBAL_UNCERTAINTY_ASSIGNED_CONTEXT ( ( #269 ) ) GLOBAL_UNIT_ASSIGNED_CONTEXT ( ( #258, #225, #283 ) ) REPRESENTATION_CONTEXT ( 'NONE', 'WORKASPACE' ) );
#138 = SURFACE_STYLE_USAGE ( .BOTH. , #329 ) ;
#139 = EDGE_CURVE ( 'NONE', #263, #131, #179, .T. ) ;
#140 = DIRECTION ( 'NONE',  ( 4.275831445896958607E-31, 1.000000000000000000, 1.224646799147353454E-16 ) ) ;
#141 = DIRECTION ( 'NONE',  ( 3.491481338843133355E-15, -0.000000000000000000, 1.000000000000000000 ) ) ;
#142 =( NAMED_UNIT ( * ) SI_UNIT ( $, .STERADIAN. ) SOLID_ANGLE_UNIT ( ) );
#143 = LINE ( 'NONE', #9, #55 ) ;
#144 = PRESENTATION_STYLE_ASSIGNMENT (( #37 ) ) ;
#145 = LINE ( 'NONE', #24, #284 ) ;
#146 = DIRECTION ( 'NONE',  ( 0.000000000000000000, -1.000000000000000000, 0.000000000000000000 ) ) ;
#147 = AXIS2_PLACEMENT_3D ( 'NONE', #39, #66, #146 ) ;
#148 = DIRECTION ( 'NONE',  ( 3.491481338843133355E-15, -0.000000000000000000, 1.000000000000000000 ) ) ;
#149 = CLOSED_SHELL ( 'NONE', ( #297, #191, #237, #257, #155, #107, #104, #320 ) ) ;
#150 = LINE ( 'NONE', #18, #58 ) ;
#151 = VERTEX_POINT ( 'NONE', #323 ) ;
#152 =( NAMED_UNIT ( * ) SI_UNIT ( $, .STERADIAN. ) SOLID_ANGLE_UNIT ( ) );
#153 = CARTESIAN_POINT ( 'NONE',  ( -1.499999999999975353, 1.836970198721028948E-16, 6.750000000000005329 ) ) ;
#154 = EDGE_LOOP ( 'NONE', ( #42, #106 ) ) ;
#155 = ADVANCED_FACE ( 'NONE', ( #298 ), #54, .T. ) ;
#156 = FACE_OUTER_BOUND ( 'NONE', #206, .T. ) ;
#157 = ORIENTED_EDGE ( 'NONE', *, *, #28, .T. ) ;
#158 = DIRECTION ( 'NONE',  ( 0.000000000000000000, 0.000000000000000000, 1.000000000000000000 ) ) ;
#159 = EDGE_CURVE ( 'NONE', #102, #29, #30, .T. ) ;
#160 = ORIENTED_EDGE ( 'NONE', *, *, #129, .F. ) ;
#161 = MECHANICAL_DESIGN_GEOMETRIC_PRESENTATION_REPRESENTATION (  '', ( #53 ), #137 ) ;
#162 = UNCERTAINTY_MEASURE_WITH_UNIT (LENGTH_MEASURE( 1.000000000000000082E-05 ), #59, 'distance_accuracy_value', 'NONE');
#163 = ADVANCED_FACE ( 'NONE', ( #315 ), #228, .T. ) ;
#164 = AXIS2_PLACEMENT_3D ( 'NONE', #168, #141, #303 ) ;
#165 = CARTESIAN_POINT ( 'NONE',  ( 8.707989055557308985E-14, -1.999999999999997113, 8.141042708545896289 ) ) ;
#166 = EDGE_CURVE ( 'NONE', #339, #183, #145, .T. ) ;
#167 = SURFACE_STYLE_FILL_AREA ( #201 ) ;
#168 = CARTESIAN_POINT ( 'NONE',  ( 0.000000000000000000, 0.000000000000000000, 0.000000000000000000 ) ) ;
#169 = CARTESIAN_POINT ( 'NONE',  ( 2.356749903719115015E-14, 0.000000000000000000, 6.750000000000000000 ) ) ;
#170 = EDGE_CURVE ( 'NONE', #101, #151, #150, .T. ) ;
#171 = FACE_OUTER_BOUND ( 'NONE', #334, .T. ) ;
#172 = FACE_OUTER_BOUND ( 'NONE', #209, .T. ) ;
#173 = CYLINDRICAL_SURFACE ( 'NONE', #120, 1.499999999999999334 ) ;
#174 = DIRECTION ( 'NONE',  ( -3.491481338843133355E-15, 1.224646799147371450E-16, -1.000000000000000000 ) ) ;
#175 = LINE ( 'NONE', #337, #202 ) ;
#176 = CARTESIAN_POINT ( 'NONE',  ( 1.461643563874895152E-13, -1.599999999999998979, 42.00000000000000000 ) ) ;
#177 = CARTESIAN_POINT ( 'NONE',  ( 8.551662891793910207E-31, 1.999999999999998224, 2.449293598294704935E-16 ) ) ;
#178 = FACE_OUTER_BOUND ( 'NONE', #186, .T. ) ;
#179 = CIRCLE ( 'NONE', #240, 1.999999999999996225 ) ;
#180 = DIRECTION ( 'NONE',  ( -3.491481338843133355E-15, 1.224646799147371450E-16, -1.000000000000000000 ) ) ;
#181 = EDGE_LOOP ( 'NONE', ( #342, #238, #3, #160 ) ) ;
#182 = DIRECTION ( 'NONE',  ( 3.491481338843133355E-15, -1.224646799147353454E-16, 1.000000000000000000 ) ) ;
#183 = VERTEX_POINT ( 'NONE', #125 ) ;
#184 =( GEOMETRIC_REPRESENTATION_CONTEXT ( 3 ) GLOBAL_UNCERTAINTY_ASSIGNED_CONTEXT ( ( #216 ) ) GLOBAL_UNIT_ASSIGNED_CONTEXT ( ( #15, #50, #152 ) ) REPRESENTATION_CONTEXT ( 'NONE', 'WORKASPACE' ) );
#185 = AXIS2_PLACEMENT_3D ( 'NONE', #68, #180, #288 ) ;
#186 = EDGE_LOOP ( 'NONE', ( #124, #317 ) ) ;
#187 = ORIENTED_EDGE ( 'NONE', *, *, #129, .T. ) ;
#188 = EDGE_CURVE ( 'NONE', #151, #263, #280, .T. ) ;
#189 = CARTESIAN_POINT ( 'NONE',  ( 0.000000000000000000, 0.000000000000000000, 0.000000000000000000 ) ) ;
#190 =( GEOMETRIC_REPRESENTATION_CONTEXT ( 3 ) GLOBAL_UNCERTAINTY_ASSIGNED_CONTEXT ( ( #134 ) ) GLOBAL_UNIT_ASSIGNED_CONTEXT ( ( #115, #21, #142 ) ) REPRESENTATION_CONTEXT ( 'NONE', 'WORKASPACE' ) );
#191 = ADVANCED_FACE ( 'NONE', ( #259 ), #130, .T. ) ;
#192 = DIRECTION ( 'NONE',  ( 3.491481338843133355E-15, -1.224646799147353454E-16, 1.000000000000000000 ) ) ;
#193 = PRESENTATION_STYLE_ASSIGNMENT (( #222 ) ) ;
#194 = FILL_AREA_STYLE_COLOUR ( '', #244 ) ;
#195 = DIRECTION ( 'NONE',  ( 3.491481338843133355E-15, -0.000000000000000000, 1.000000000000000000 ) ) ;
#196 = DIRECTION ( 'NONE',  ( -3.491481338843133355E-15, 1.224646799147371450E-16, -1.000000000000000000 ) ) ;
#197 = CIRCLE ( 'NONE', #105, 1.499999999999998890 ) ;
#198 = CARTESIAN_POINT ( 'NONE',  ( 2.356749903719115015E-14, -8.266365894244636305E-16, 6.750000000000000000 ) ) ;
#199 = PLANE ( 'NONE',  #264 ) ;
#200 = ORIENTED_EDGE ( 'NONE', *, *, #188, .T. ) ;
#201 = FILL_AREA_STYLE ('',( #194 ) ) ;
#202 = VECTOR ( 'NONE', #311, 1000.000000000000000 ) ;
#203 = CARTESIAN_POINT ( 'NONE',  ( 2.356749903719115015E-14, 0.000000000000000000, 6.750000000000000000 ) ) ;
#204 = ORIENTED_EDGE ( 'NONE', *, *, #46, .T. ) ;
#205 = CARTESIAN_POINT ( 'NONE',  ( 2.356749903719115015E-14, -1.500000000000000666, 6.750000000000000000 ) ) ;
#206 = EDGE_LOOP ( 'NONE', ( #241, #95, #236, #262 ) ) ;
#207 = PRESENTATION_LAYER_ASSIGNMENT (  '', '', ( #114 ) ) ;
#208 = DIRECTION ( 'NONE',  ( 3.285674118869261816E-15, -0.3382550599108820055, 0.9410544694355824635 ) ) ;
#209 = EDGE_LOOP ( 'NONE', ( #256, #321, #98, #127 ) ) ;
#210 = PLANE ( 'NONE',  #221 ) ;
#211 = PRODUCT_CONTEXT ( 'NONE', #242, 'mechanical' ) ;
#212 = CIRCLE ( 'NONE', #34, 1.499999999999998890 ) ;
#213 = CIRCLE ( 'NONE', #254, 1.499999999999999778 ) ;
#214 = COLOUR_RGB ( '',1.000000000000000000, 1.000000000000000000, 1.000000000000000000 ) ;
#215 = VECTOR ( 'NONE', #38, 1000.000000000000000 ) ;
#216 = UNCERTAINTY_MEASURE_WITH_UNIT (LENGTH_MEASURE( 1.000000000000000082E-05 ), #15, 'distance_accuracy_value', 'NONE');
#217 = ADVANCED_FACE ( 'NONE', ( #94 ), #199, .F. ) ;
#218 = CARTESIAN_POINT ( 'NONE',  ( 1.499999999999999778, 0.000000000000000000, -5.237222008264699244E-15 ) ) ;
#219 = CIRCLE ( 'NONE', #164, 1.499999999999999778 ) ;
#220 = FILL_AREA_STYLE ('',( #14 ) ) ;
#221 = AXIS2_PLACEMENT_3D ( 'NONE', #286, #309, #62 ) ;
#222 = SURFACE_STYLE_USAGE ( .BOTH. , #56 ) ;
#223 = SURFACE_SIDE_STYLE ('',( #13 ) ) ;
#224 = DIRECTION ( 'NONE',  ( -3.491481338843133355E-15, 1.224646799147353454E-16, -1.000000000000000000 ) ) ;
#225 =( NAMED_UNIT ( * ) PLANE_ANGLE_UNIT ( ) SI_UNIT ( $, .RADIAN. ) );
#226 = CARTESIAN_POINT ( 'NONE',  ( 2.356749903719115015E-14, 1.499999999999998890, 6.750000000000000000 ) ) ;
#227 = CARTESIAN_POINT ( 'NONE',  ( 1.452456236958743476E-13, -5.094530684452989894E-15, 41.60000000000000142 ) ) ;
#228 = CYLINDRICAL_SURFACE ( 'NONE', #99, 1.499999999999999334 ) ;
#229 = ORIENTED_EDGE ( 'NONE', *, *, #166, .T. ) ;
#230 = APPLICATION_PROTOCOL_DEFINITION ( 'draft international standard', 'automotive_design', 1998, #5 ) ;
#231 = EDGE_CURVE ( 'NONE', #183, #151, #305, .T. ) ;
#232 = DIRECTION ( 'NONE',  ( 3.491481338843133355E-15, -0.000000000000000000, 1.000000000000000000 ) ) ;
#233 = ORIENTED_EDGE ( 'NONE', *, *, #231, .T. ) ;
#234 = CIRCLE ( 'NONE', #109, 1.599999999999993872 ) ;
#235 = PLANE ( 'NONE',  #49 ) ;
#236 = ORIENTED_EDGE ( 'NONE', *, *, #139, .F. ) ;
#237 = ADVANCED_FACE ( 'NONE', ( #156 ), #261, .T. ) ;
#238 = ORIENTED_EDGE ( 'NONE', *, *, #330, .T. ) ;
#239 = ORIENTED_EDGE ( 'NONE', *, *, #159, .T. ) ;
#240 = AXIS2_PLACEMENT_3D ( 'NONE', #276, #253, #119 ) ;
#241 = ORIENTED_EDGE ( 'NONE', *, *, #275, .T. ) ;
#242 = APPLICATION_CONTEXT ( 'automotive_design' ) ;
#243 = ORIENTED_EDGE ( 'NONE', *, *, #78, .F. ) ;
#244 = COLOUR_RGB ( '',1.000000000000000000, 1.000000000000000000, 1.000000000000000000 ) ;
#245 = DIRECTION ( 'NONE',  ( 3.491481338843133355E-15, -0.000000000000000000, 1.000000000000000000 ) ) ;
#246 = DIRECTION ( 'NONE',  ( 3.491481338843133355E-15, -0.000000000000000000, 1.000000000000000000 ) ) ;
#247 = DIRECTION ( 'NONE',  ( 1.000000000000000000, 0.000000000000000000, -3.469446951953616950E-15 ) ) ;
#248 = CONICAL_SURFACE ( 'NONE', #52, 1.499999999999999778, 0.3450620389298190149 ) ;
#249 = SURFACE_STYLE_FILL_AREA ( #220 ) ;
#250 = FILL_AREA_STYLE ('',( #307 ) ) ;
#251 = CARTESIAN_POINT ( 'NONE',  ( 1.459439199636429616E-13, 1.599999999999988542, 42.00000000000000000 ) ) ;
#252 = APPLICATION_PROTOCOL_DEFINITION ( 'draft international standard', 'automotive_design', 1998, #242 ) ;
#253 = DIRECTION ( 'NONE',  ( -3.491481338843133355E-15, 1.224646799147353454E-16, -1.000000000000000000 ) ) ;
#254 = AXIS2_PLACEMENT_3D ( 'NONE', #19, #260, #23 ) ;
#255 = DIRECTION ( 'NONE',  ( 4.275831445896958607E-31, 1.000000000000000000, 1.224646799147353454E-16 ) ) ;
#256 = ORIENTED_EDGE ( 'NONE', *, *, #166, .F. ) ;
#257 = ADVANCED_FACE ( 'NONE', ( #22 ), #235, .T. ) ;
#258 =( LENGTH_UNIT ( ) NAMED_UNIT ( * ) SI_UNIT ( .MILLI., .METRE. ) );
#259 = FACE_OUTER_BOUND ( 'NONE', #122, .T. ) ;
#260 = DIRECTION ( 'NONE',  ( -3.491481338843133355E-15, 1.224646799147353454E-16, -1.000000000000000000 ) ) ;
#261 = CYLINDRICAL_SURFACE ( 'NONE', #4, 1.999999999999998224 ) ;
#262 = ORIENTED_EDGE ( 'NONE', *, *, #188, .F. ) ;
#263 = VERTEX_POINT ( 'NONE', #123 ) ;
#264 = AXIS2_PLACEMENT_3D ( 'NONE', #70, #290, #41 ) ;
#265 = PRODUCT ( '67453', '67453', '', ( #211 ) ) ;
#266 = EDGE_LOOP ( 'NONE', ( #45, #204 ) ) ;
#267 = EDGE_CURVE ( 'NONE', #289, #131, #97, .T. ) ;
#268 = EDGE_LOOP ( 'NONE', ( #157, #69 ) ) ;
#269 = UNCERTAINTY_MEASURE_WITH_UNIT (LENGTH_MEASURE( 1.000000000000000082E-05 ), #258, 'distance_accuracy_value', 'NONE');
#270 = CONICAL_SURFACE ( 'NONE', #118, 1.999999999999998224, 0.7853981633974485010 ) ;
#271 = CARTESIAN_POINT ( 'NONE',  ( 2.842429869561295464E-14, -9.969901894742632755E-16, 8.141042708545896289 ) ) ;
#272 = AXIS2_PLACEMENT_3D ( 'NONE', #128, #158, #72 ) ;
#273 = FACE_OUTER_BOUND ( 'NONE', #75, .T. ) ;
#274 = CARTESIAN_POINT ( 'NONE',  ( 1.466422162314116009E-13, -5.143516556418884900E-15, 42.00000000000000000 ) ) ;
#275 = EDGE_CURVE ( 'NONE', #151, #183, #293, .T. ) ;
#276 = CARTESIAN_POINT ( 'NONE',  ( 2.842429869561295464E-14, -9.969901894742632755E-16, 8.141042708545896289 ) ) ;
#277 = CARTESIAN_POINT ( 'NONE',  ( 2.621021205625283733E-14, 1.499999999999998890, 6.750000000000000000 ) ) ;
#278 = DIRECTION ( 'NONE',  ( 1.000000000000000000, 0.000000000000000000, -3.469446951953615767E-15 ) ) ;
#279 = DIRECTION ( 'NONE',  ( 0.000000000000000000, 1.000000000000000000, 0.000000000000000000 ) ) ;
#280 = LINE ( 'NONE', #177, #215 ) ;
#281 = VERTEX_POINT ( 'NONE', #153 ) ;
#282 = PRODUCT_DEFINITION_FORMATION_WITH_SPECIFIED_SOURCE ( 'ANY', '', #265, .NOT_KNOWN. ) ;
#283 =( NAMED_UNIT ( * ) SI_UNIT ( $, .STERADIAN. ) SOLID_ANGLE_UNIT ( ) );
#284 = VECTOR ( 'NONE', #336, 1000.000000000000000 ) ;
#285 = CARTESIAN_POINT ( 'NONE',  ( 2.356749903719115015E-14, -8.266365894244636305E-16, 6.750000000000000000 ) ) ;
#286 = CARTESIAN_POINT ( 'NONE',  ( 4.275831445896956527E-32, 1.499999999999999778, 1.224646799147352653E-17 ) ) ;
#287 = CLOSED_SHELL ( 'NONE', ( #110, #163, #217, #6 ) ) ;
#288 = DIRECTION ( 'NONE',  ( 3.019806626980425790E-14, -1.000000000000000000, 0.000000000000000000 ) ) ;
#289 = VERTEX_POINT ( 'NONE', #333 ) ;
#290 = DIRECTION ( 'NONE',  ( -3.491481338843133355E-15, 0.000000000000000000, -1.000000000000000000 ) ) ;
#291 = ORIENTED_EDGE ( 'NONE', *, *, #275, .F. ) ;
#292 = PRESENTATION_LAYER_ASSIGNMENT (  '', '', ( #53 ) ) ;
#293 = CIRCLE ( 'NONE', #185, 1.999999999999998224 ) ;
#294 = EDGE_CURVE ( 'NONE', #322, #263, #90, .T. ) ;
#295 = PRODUCT_DEFINITION_SHAPE ( 'NONE', 'NONE',  #65 ) ;
#296 = ORIENTED_EDGE ( 'NONE', *, *, #267, .F. ) ;
#297 = ADVANCED_FACE ( 'NONE', ( #16 ), #133, .T. ) ;
#298 = FACE_OUTER_BOUND ( 'NONE', #154, .T. ) ;
#299 = CIRCLE ( 'NONE', #2, 1.499999999999999778 ) ;
#300 = EDGE_CURVE ( 'NONE', #76, #281, #212, .T. ) ;
#301 = FACE_OUTER_BOUND ( 'NONE', #181, .T. ) ;
#302 = PRESENTATION_LAYER_ASSIGNMENT (  '', '', ( #77 ) ) ;
#303 = DIRECTION ( 'NONE',  ( 1.000000000000000000, 0.000000000000000000, -3.491481338843133355E-15 ) ) ;
#304 = CARTESIAN_POINT ( 'NONE',  ( -1.499999999999975797, 1.836970198721029194E-16, 6.750000000000005329 ) ) ;
#305 = CIRCLE ( 'NONE', #332, 1.999999999999998224 ) ;
#306 = CARTESIAN_POINT ( 'NONE',  ( 2.356749903719115015E-14, 0.000000000000000000, 6.750000000000000000 ) ) ;
#307 = FILL_AREA_STYLE_COLOUR ( '', #214 ) ;
#308 = CARTESIAN_POINT ( 'NONE',  ( 2.375119605706324971E-14, 1.499999999999998890, 6.750000000000000000 ) ) ;
#309 = DIRECTION ( 'NONE',  ( 3.491481338843133355E-15, -0.000000000000000000, 1.000000000000000000 ) ) ;
#310 = DIRECTION ( 'NONE',  ( -2.930988785010413267E-14, -1.000000000000000000, 0.000000000000000000 ) ) ;
#311 = DIRECTION ( 'NONE',  ( -3.491481338843133355E-15, 1.224646799147353454E-16, -1.000000000000000000 ) ) ;
#312 =( GEOMETRIC_REPRESENTATION_CONTEXT ( 3 ) GLOBAL_UNCERTAINTY_ASSIGNED_CONTEXT ( ( #162 ) ) GLOBAL_UNIT_ASSIGNED_CONTEXT ( ( #59, #12, #327 ) ) REPRESENTATION_CONTEXT ( 'NONE', 'WORKASPACE' ) );
#313 = DIRECTION ( 'NONE',  ( -3.491481338843133355E-15, 1.224646799147353454E-16, -1.000000000000000000 ) ) ;
#314 = ORIENTED_EDGE ( 'NONE', *, *, #93, .F. ) ;
#315 = FACE_OUTER_BOUND ( 'NONE', #91, .T. ) ;
#316 = ORIENTED_EDGE ( 'NONE', *, *, #330, .F. ) ;
#317 = ORIENTED_EDGE ( 'NONE', *, *, #159, .F. ) ;
#318 = CIRCLE ( 'NONE', #147, 1.599999999999993872 ) ;
#319 = MANIFOLD_SOLID_BREP ( 'Corps-Déplacer/Copier1[2]', #287 ) ;
#320 = ADVANCED_FACE ( 'NONE', ( #172 ), #270, .T. ) ;
#321 = ORIENTED_EDGE ( 'NONE', *, *, #324, .F. ) ;
#322 = VERTEX_POINT ( 'NONE', #277 ) ;
#323 = CARTESIAN_POINT ( 'NONE',  ( 8.683496119574365742E-14, 1.999999999999993117, 41.60000000000000142 ) ) ;
#324 = EDGE_CURVE ( 'NONE', #101, #339, #234, .T. ) ;
#325 = DIRECTION ( 'NONE',  ( -3.491481338843133355E-15, 1.224646799147353454E-16, -1.000000000000000000 ) ) ;
#326 = MECHANICAL_DESIGN_GEOMETRIC_PRESENTATION_REPRESENTATION (  '', ( #114 ), #312 ) ;
#327 =( NAMED_UNIT ( * ) SI_UNIT ( $, .STERADIAN. ) SOLID_ANGLE_UNIT ( ) );
#328 = DIRECTION ( 'NONE',  ( 0.000000000000000000, 1.000000000000000000, 0.000000000000000000 ) ) ;
#329 = SURFACE_SIDE_STYLE ('',( #167 ) ) ;
#330 = EDGE_CURVE ( 'NONE', #102, #281, #84, .T. ) ;
#331 = DIRECTION ( 'NONE',  ( 0.000000000000000000, 1.000000000000000000, 0.000000000000000000 ) ) ;
#332 = AXIS2_PLACEMENT_3D ( 'NONE', #44, #174, #310 ) ;
#333 = CARTESIAN_POINT ( 'NONE',  ( 2.599589886640205397E-14, -1.500000000000000666, 6.750000000000000000 ) ) ;
#334 = EDGE_LOOP ( 'NONE', ( #108, #233, #200, #314 ) ) ;
#335 = CARTESIAN_POINT ( 'NONE',  ( 1.452456236958743476E-13, -5.094530684452989894E-15, 41.60000000000000142 ) ) ;
#336 = DIRECTION ( 'NONE',  ( -2.382254525458715892E-15, -0.7071067811865476838, -0.7071067811865474617 ) ) ;
#337 = CARTESIAN_POINT ( 'NONE',  ( 2.449293598294696061E-16, -1.999999999999998224, -2.449293598294712824E-16 ) ) ;
#338 = DIRECTION ( 'NONE',  ( 0.000000000000000000, -1.000000000000000000, 0.000000000000000000 ) ) ;
#339 = VERTEX_POINT ( 'NONE', #176 ) ;
#340 = SHAPE_DEFINITION_REPRESENTATION ( #295, #111 ) ;
#341 = DIRECTION ( 'NONE',  ( -3.491481338843133355E-15, 1.224646799147353454E-16, -1.000000000000000000 ) ) ;
#342 = ORIENTED_EDGE ( 'NONE', *, *, #87, .T. ) ;
#343 = ORIENTED_EDGE ( 'NONE', *, *, #28, .F. ) ;
ENDSEC;
END-ISO-10303-21;
