ISO-10303-21;
HEADER;
FILE_DESCRIPTION (( 'STEP AP214' ),
    '1' );
FILE_NAME ('67452.step',
    '2024-04-04T13:00:09',
    ( '' ),
    ( '' ),
    'SwSTEP 2.0',
    'SolidWorks 2022',
    '' );
FILE_SCHEMA (( 'AUTOMOTIVE_DESIGN' ));
ENDSEC;

DATA;
#1 = EDGE_LOOP ( 'NONE', ( #294, #239, #131, #208 ) ) ;
#2 = EDGE_LOOP ( 'NONE', ( #191, #135, #33, #322 ) ) ;
#3 = DIRECTION ( 'NONE',  ( -3.491481338843133355E-15, 1.224646799147353207E-16, -1.000000000000000000 ) ) ;
#4 = CONICAL_SURFACE ( 'NONE', #338, 1.300000000000000044, 0.3450620389298190704 ) ;
#5 = CARTESIAN_POINT ( 'NONE',  ( 0.000000000000000000, 0.000000000000000000, 0.000000000000000000 ) ) ;
#6 = DIRECTION ( 'NONE',  ( 4.275831445896958607E-31, 1.000000000000000000, 1.224646799147353207E-16 ) ) ;
#7 = CARTESIAN_POINT ( 'NONE',  ( 1.316288464743861212E-13, -4.616918432785521081E-15, 37.69999999999999574 ) ) ;
#8 = PLANE ( 'NONE',  #254 ) ;
#9 = AXIS2_PLACEMENT_3D ( 'NONE', #227, #41, #116 ) ;
#10 = CARTESIAN_POINT ( 'NONE',  ( 1.316288464743861212E-13, -4.616918432785521081E-15, 37.69999999999999574 ) ) ;
#11 = ADVANCED_FACE ( 'NONE', ( #88 ), #154, .T. ) ;
#12 = CARTESIAN_POINT ( 'NONE',  ( 2.199633243471174014E-14, 0.000000000000000000, 6.299999999999999822 ) ) ;
#13 = DIRECTION ( 'NONE',  ( 3.285674118869261816E-15, -0.3382550599108820610, 0.9410544694355824635 ) ) ;
#14 = CYLINDRICAL_SURFACE ( 'NONE', #289, 1.299999999999999600 ) ;
#15 = VECTOR ( 'NONE', #138, 1000.000000000000000 ) ;
#16 = CARTESIAN_POINT ( 'NONE',  ( 1.323178959930974906E-13, -1.200000000000000622, 38.00000000000000000 ) ) ;
#17 = FACE_OUTER_BOUND ( 'NONE', #108, .T. ) ;
#18 =( NAMED_UNIT ( * ) SI_UNIT ( $, .STERADIAN. ) SOLID_ANGLE_UNIT ( ) );
#19 =( GEOMETRIC_REPRESENTATION_CONTEXT ( 3 ) GLOBAL_UNCERTAINTY_ASSIGNED_CONTEXT ( ( #60 ) ) GLOBAL_UNIT_ASSIGNED_CONTEXT ( ( #202, #339, #259 ) ) REPRESENTATION_CONTEXT ( 'NONE', 'WORKASPACE' ) );
#20 = FILL_AREA_STYLE ('',( #38 ) ) ;
#21 = APPLICATION_PROTOCOL_DEFINITION ( 'draft international standard', 'automotive_design', 1998, #212 ) ;
#22 = CIRCLE ( 'NONE', #185, 1.499999999999996891 ) ;
#23 = PRODUCT_DEFINITION_CONTEXT ( 'detailed design', #77, 'design' ) ;
#24 = PRODUCT_DEFINITION ( 'UNKNOWN', '', #314, #23 ) ;
#25 = AXIS2_PLACEMENT_3D ( 'NONE', #194, #283, #304 ) ;
#26 = ADVANCED_FACE ( 'NONE', ( #91 ), #4, .T. ) ;
#27 = EDGE_LOOP ( 'NONE', ( #213, #234 ) ) ;
#28 = ORIENTED_EDGE ( 'NONE', *, *, #214, .F. ) ;
#29 = AXIS2_PLACEMENT_3D ( 'NONE', #256, #315, #261 ) ;
#30 = VERTEX_POINT ( 'NONE', #324 ) ;
#31 = AXIS2_PLACEMENT_3D ( 'NONE', #249, #226, #176 ) ;
#32 = ORIENTED_EDGE ( 'NONE', *, *, #340, .F. ) ;
#33 = ORIENTED_EDGE ( 'NONE', *, *, #106, .T. ) ;
#34 = FACE_OUTER_BOUND ( 'NONE', #162, .T. ) ;
#35 = CIRCLE ( 'NONE', #258, 1.300000000000000044 ) ;
#36 = DIRECTION ( 'NONE',  ( -2.468850131082267710E-15, 0.7071067811865469066, -0.7071067811865482389 ) ) ;
#37 = CARTESIAN_POINT ( 'NONE',  ( 2.199633243471174014E-14, -7.715274834628325378E-16, 6.299999999999999822 ) ) ;
#38 = FILL_AREA_STYLE_COLOUR ( '', #206 ) ;
#39 = SURFACE_STYLE_FILL_AREA ( #85 ) ;
#40 = DIRECTION ( 'NONE',  ( -3.491481338843133355E-15, 1.224646799147359124E-16, -1.000000000000000000 ) ) ;
#41 = DIRECTION ( 'NONE',  ( -3.491481338843133355E-15, 1.224646799147353207E-16, -1.000000000000000000 ) ) ;
#42 = SURFACE_SIDE_STYLE ('',( #39 ) ) ;
#43 = CARTESIAN_POINT ( 'NONE',  ( -1.300000000000000044, 1.592040838891572407E-16, 4.538925740496073362E-15 ) ) ;
#44 = PRESENTATION_STYLE_ASSIGNMENT (( #143 ) ) ;
#45 = LINE ( 'NONE', #151, #233 ) ;
#46 = DIRECTION ( 'NONE',  ( 3.491481338843133355E-15, -0.000000000000000000, 1.000000000000000000 ) ) ;
#47 = AXIS2_PLACEMENT_3D ( 'NONE', #69, #71, #198 ) ;
#48 = CLOSED_SHELL ( 'NONE', ( #132, #26, #308, #171, #122, #57, #11, #204 ) ) ;
#49 = EDGE_CURVE ( 'NONE', #243, #343, #205, .T. ) ;
#50 = CIRCLE ( 'NONE', #182, 1.499999999999996225 ) ;
#51 = ORIENTED_EDGE ( 'NONE', *, *, #74, .T. ) ;
#52 = ORIENTED_EDGE ( 'NONE', *, *, #80, .T. ) ;
#53 = PRESENTATION_LAYER_ASSIGNMENT (  '', '', ( #81 ) ) ;
#54 = ORIENTED_EDGE ( 'NONE', *, *, #49, .F. ) ;
#55 = MECHANICAL_DESIGN_GEOMETRIC_PRESENTATION_REPRESENTATION (  '', ( #139 ), #238 ) ;
#56 = EDGE_LOOP ( 'NONE', ( #291, #215 ) ) ;
#57 = ADVANCED_FACE ( 'NONE', ( #166 ), #325, .T. ) ;
#58 = DIRECTION ( 'NONE',  ( 0.000000000000000000, -1.000000000000000000, 0.000000000000000000 ) ) ;
#59 =( GEOMETRIC_REPRESENTATION_CONTEXT ( 3 ) GLOBAL_UNCERTAINTY_ASSIGNED_CONTEXT ( ( #273 ) ) GLOBAL_UNIT_ASSIGNED_CONTEXT ( ( #334, #313, #18 ) ) REPRESENTATION_CONTEXT ( 'NONE', 'WORKASPACE' ) );
#60 = UNCERTAINTY_MEASURE_WITH_UNIT (LENGTH_MEASURE( 1.000000000000000082E-05 ), #202, 'distance_accuracy_value', 'NONE');
#61 = CARTESIAN_POINT ( 'NONE',  ( 2.199633243471174014E-14, 1.299999999999999156, 6.299999999999999822 ) ) ;
#62 = DIRECTION ( 'NONE',  ( -3.552713678800501560E-14, -1.000000000000000000, 0.000000000000000000 ) ) ;
#63 = CIRCLE ( 'NONE', #119, 1.499999999999996891 ) ;
#64 = CARTESIAN_POINT ( 'NONE',  ( 1.316288464743861212E-13, 1.499999999999992450, 37.69999999999999574 ) ) ;
#65 = CARTESIAN_POINT ( 'NONE',  ( 1.326762908760390423E-13, -4.653657836759941941E-15, 38.00000000000000000 ) ) ;
#66 = CYLINDRICAL_SURFACE ( 'NONE', #9, 1.499999999999996891 ) ;
#67 = FACE_OUTER_BOUND ( 'NONE', #292, .T. ) ;
#68 = PLANE ( 'NONE',  #242 ) ;
#69 = CARTESIAN_POINT ( 'NONE',  ( 2.199633243471174014E-14, -7.715274834628325378E-16, 6.299999999999999822 ) ) ;
#70 = DIRECTION ( 'NONE',  ( 0.000000000000000000, 1.000000000000000000, 0.000000000000000000 ) ) ;
#71 = DIRECTION ( 'NONE',  ( -3.491481338843133355E-15, 1.224646799147353207E-16, -1.000000000000000000 ) ) ;
#72 = SURFACE_SIDE_STYLE ('',( #73 ) ) ;
#73 = SURFACE_STYLE_FILL_AREA ( #101 ) ;
#74 = EDGE_CURVE ( 'NONE', #320, #30, #93, .T. ) ;
#75 = CLOSED_SHELL ( 'NONE', ( #183, #269, #232, #284 ) ) ;
#76 = ORIENTED_EDGE ( 'NONE', *, *, #267, .F. ) ;
#77 = APPLICATION_CONTEXT ( 'automotive_design' ) ;
#78 = ORIENTED_EDGE ( 'NONE', *, *, #267, .T. ) ;
#79 = VERTEX_POINT ( 'NONE', #192 ) ;
#80 = EDGE_CURVE ( 'NONE', #299, #343, #137, .T. ) ;
#81 = STYLED_ITEM ( 'NONE', ( #287 ), #207 ) ;
#82 = EDGE_CURVE ( 'NONE', #186, #299, #63, .T. ) ;
#83 = ORIENTED_EDGE ( 'NONE', *, *, #156, .F. ) ;
#84 = EDGE_LOOP ( 'NONE', ( #268, #133 ) ) ;
#85 = FILL_AREA_STYLE ('',( #112 ) ) ;
#86 = ORIENTED_EDGE ( 'NONE', *, *, #330, .F. ) ;
#87 = EDGE_CURVE ( 'NONE', #299, #186, #22, .T. ) ;
#88 = FACE_OUTER_BOUND ( 'NONE', #323, .T. ) ;
#89 = AXIS2_PLACEMENT_3D ( 'NONE', #177, #224, #307 ) ;
#90 =( NAMED_UNIT ( * ) PLANE_ANGLE_UNIT ( ) SI_UNIT ( $, .RADIAN. ) );
#91 = FACE_OUTER_BOUND ( 'NONE', #1, .T. ) ;
#92 = DIRECTION ( 'NONE',  ( 1.000000000000000000, 0.000000000000000000, -3.491481338843133355E-15 ) ) ;
#93 = LINE ( 'NONE', #332, #15 ) ;
#94 = CARTESIAN_POINT ( 'NONE',  ( 1.318125434942582113E-13, -1.500000000000001554, 37.69999999999999574 ) ) ;
#95 = ORIENTED_EDGE ( 'NONE', *, *, #305, .T. ) ;
#96 = CARTESIAN_POINT ( 'NONE',  ( 2.199633243471174014E-14, 1.299999999999999156, 6.299999999999999822 ) ) ;
#97 = LINE ( 'NONE', #200, #264 ) ;
#98 = CARTESIAN_POINT ( 'NONE',  ( 7.778394938623329156E-14, 1.499999999999992450, 37.69999999999999574 ) ) ;
#99 = APPLICATION_PROTOCOL_DEFINITION ( 'draft international standard', 'automotive_design', 1998, #77 ) ;
#100 = VECTOR ( 'NONE', #164, 1000.000000000000000 ) ;
#101 = FILL_AREA_STYLE ('',( #126 ) ) ;
#102 = ORIENTED_EDGE ( 'NONE', *, *, #305, .F. ) ;
#103 = PRESENTATION_LAYER_ASSIGNMENT (  '', '', ( #219 ) ) ;
#104 = ORIENTED_EDGE ( 'NONE', *, *, #214, .T. ) ;
#105 = VECTOR ( 'NONE', #220, 1000.000000000000114 ) ;
#106 = EDGE_CURVE ( 'NONE', #186, #243, #327, .T. ) ;
#107 = PRODUCT_DEFINITION_SHAPE ( 'NONE', 'NONE',  #24 ) ;
#108 = EDGE_LOOP ( 'NONE', ( #76, #161, #51, #32 ) ) ;
#109 = EDGE_CURVE ( 'NONE', #341, #237, #35, .T. ) ;
#110 = ORIENTED_EDGE ( 'NONE', *, *, #87, .F. ) ;
#111 = VECTOR ( 'NONE', #251, 1000.000000000000000 ) ;
#112 = FILL_AREA_STYLE_COLOUR ( '', #127 ) ;
#113 = CARTESIAN_POINT ( 'NONE',  ( 6.413747168845424773E-31, 1.499999999999996891, 1.836970198721026236E-16 ) ) ;
#114 = DIRECTION ( 'NONE',  ( 3.491481338843133355E-15, -0.000000000000000000, 1.000000000000000000 ) ) ;
#115 = DIRECTION ( 'NONE',  ( 0.000000000000000000, 1.000000000000000000, 0.000000000000000000 ) ) ;
#116 = DIRECTION ( 'NONE',  ( 4.275831445896958607E-31, 1.000000000000000000, 1.224646799147353454E-16 ) ) ;
#117 = DIRECTION ( 'NONE',  ( 3.491481338843133355E-15, -0.000000000000000000, 1.000000000000000000 ) ) ;
#118 = CARTESIAN_POINT ( 'NONE',  ( 1.300000000000000044, 0.000000000000000000, -4.538925740496073362E-15 ) ) ;
#119 = AXIS2_PLACEMENT_3D ( 'NONE', #7, #301, #303 ) ;
#120 = CARTESIAN_POINT ( 'NONE',  ( 2.393905229808043985E-14, 1.499999999999995337, 6.856417083418351766 ) ) ;
#121 = CARTESIAN_POINT ( 'NONE',  ( 1.316288464743861212E-13, -4.616918432785521081E-15, 37.69999999999999574 ) ) ;
#122 = ADVANCED_FACE ( 'NONE', ( #272 ), #68, .T. ) ;
#123 = CYLINDRICAL_SURFACE ( 'NONE', #342, 1.299999999999999600 ) ;
#124 = MECHANICAL_DESIGN_GEOMETRIC_PRESENTATION_REPRESENTATION (  '', ( #219 ), #59 ) ;
#125 = CARTESIAN_POINT ( 'NONE',  ( 7.796764640610536904E-14, -1.499999999999996891, 6.856417083418351766 ) ) ;
#126 = FILL_AREA_STYLE_COLOUR ( '', #321 ) ;
#127 = COLOUR_RGB ( '',1.000000000000000000, 1.000000000000000000, 1.000000000000000000 ) ;
#128 =( GEOMETRIC_REPRESENTATION_CONTEXT ( 3 ) GLOBAL_UNCERTAINTY_ASSIGNED_CONTEXT ( ( #140 ) ) GLOBAL_UNIT_ASSIGNED_CONTEXT ( ( #155, #260, #179 ) ) REPRESENTATION_CONTEXT ( 'NONE', 'WORKASPACE' ) );
#129 = SHAPE_DEFINITION_REPRESENTATION ( #107, #207 ) ;
#130 = ORIENTED_EDGE ( 'NONE', *, *, #340, .T. ) ;
#131 = ORIENTED_EDGE ( 'NONE', *, *, #49, .T. ) ;
#132 = ADVANCED_FACE ( 'NONE', ( #34 ), #316, .T. ) ;
#133 = ORIENTED_EDGE ( 'NONE', *, *, #257, .T. ) ;
#134 = AXIS2_PLACEMENT_3D ( 'NONE', #10, #300, #70 ) ;
#135 = ORIENTED_EDGE ( 'NONE', *, *, #87, .T. ) ;
#136 = ORIENTED_EDGE ( 'NONE', *, *, #257, .F. ) ;
#137 = LINE ( 'NONE', #245, #100 ) ;
#138 = DIRECTION ( 'NONE',  ( 3.491481338843133355E-15, -0.000000000000000000, 1.000000000000000000 ) ) ;
#139 = STYLED_ITEM ( 'NONE', ( #169 ), #160 ) ;
#140 = UNCERTAINTY_MEASURE_WITH_UNIT (LENGTH_MEASURE( 1.000000000000000082E-05 ), #155, 'distance_accuracy_value', 'NONE');
#141 = CARTESIAN_POINT ( 'NONE',  ( 2.199633243471174014E-14, 0.000000000000000000, 6.299999999999999822 ) ) ;
#142 = DIRECTION ( 'NONE',  ( 4.275831445896958607E-31, 1.000000000000000000, 1.224646799147353454E-16 ) ) ;
#143 = SURFACE_STYLE_USAGE ( .BOTH. , #285 ) ;
#144 = FACE_OUTER_BOUND ( 'NONE', #317, .T. ) ;
#145 = CARTESIAN_POINT ( 'NONE',  ( 2.393905229808043985E-14, -8.396689234827515675E-16, 6.856417083418351766 ) ) ;
#146 = CARTESIAN_POINT ( 'NONE',  ( 5.344789307371198258E-32, 1.300000000000000044, 1.530808498934191817E-17 ) ) ;
#147 = DIRECTION ( 'NONE',  ( -3.491481338843133355E-15, 0.000000000000000000, -1.000000000000000000 ) ) ;
#148 = EDGE_CURVE ( 'NONE', #341, #243, #282, .T. ) ;
#149 = DIRECTION ( 'NONE',  ( 0.000000000000000000, 1.000000000000000000, 0.000000000000000000 ) ) ;
#150 = AXIS2_PLACEMENT_3D ( 'NONE', #121, #173, #115 ) ;
#151 = CARTESIAN_POINT ( 'NONE',  ( -1.299999999999977618, 1.592040838891558602E-16, 6.300000000000004263 ) ) ;
#152 = DIRECTION ( 'NONE',  ( 1.000000000000000000, 0.000000000000000000, -3.491481338843133355E-15 ) ) ;
#153 = SURFACE_STYLE_FILL_AREA ( #20 ) ;
#154 = CONICAL_SURFACE ( 'NONE', #230, 1.300000000000000044, 0.3450620389298190704 ) ;
#155 =( LENGTH_UNIT ( ) NAMED_UNIT ( * ) SI_UNIT ( .MILLI., .METRE. ) );
#156 = EDGE_CURVE ( 'NONE', #30, #79, #225, .T. ) ;
#157 = VERTEX_POINT ( 'NONE', #43 ) ;
#158 = AXIS2_PLACEMENT_3D ( 'NONE', #61, #147, #165 ) ;
#159 = ORIENTED_EDGE ( 'NONE', *, *, #148, .F. ) ;
#160 = MANIFOLD_SOLID_BREP ( 'Corps-Déplacer/Copier1[1]', #48 ) ;
#161 = ORIENTED_EDGE ( 'NONE', *, *, #293, .T. ) ;
#162 = EDGE_LOOP ( 'NONE', ( #136, #95, #295, #28 ) ) ;
#163 = VERTEX_POINT ( 'NONE', #172 ) ;
#164 = DIRECTION ( 'NONE',  ( -3.491481338843133355E-15, 1.224646799147353207E-16, -1.000000000000000000 ) ) ;
#165 = DIRECTION ( 'NONE',  ( -1.000000000000000000, 0.000000000000000000, 3.491481338843133355E-15 ) ) ;
#166 = FACE_OUTER_BOUND ( 'NONE', #2, .T. ) ;
#167 = AXIS2_PLACEMENT_3D ( 'NONE', #145, #3, #190 ) ;
#168 = UNCERTAINTY_MEASURE_WITH_UNIT (LENGTH_MEASURE( 1.000000000000000082E-05 ), #326, 'distance_accuracy_value', 'NONE');
#169 = PRESENTATION_STYLE_ASSIGNMENT (( #201 ) ) ;
#170 = DIRECTION ( 'NONE',  ( 3.491481338843133355E-15, -1.224646799147353207E-16, 1.000000000000000000 ) ) ;
#171 = ADVANCED_FACE ( 'NONE', ( #286 ), #178, .T. ) ;
#172 = CARTESIAN_POINT ( 'NONE',  ( 1.321525686752125943E-13, 1.199999999999991518, 38.00000000000000000 ) ) ;
#173 = DIRECTION ( 'NONE',  ( -3.491481338843133355E-15, 1.224646799147359124E-16, -1.000000000000000000 ) ) ;
#174 = MECHANICAL_DESIGN_GEOMETRIC_PRESENTATION_REPRESENTATION (  '', ( #81 ), #128 ) ;
#175 = LINE ( 'NONE', #94, #111 ) ;
#176 = DIRECTION ( 'NONE',  ( 0.000000000000000000, -1.000000000000000000, 0.000000000000000000 ) ) ;
#177 = CARTESIAN_POINT ( 'NONE',  ( 1.326762908760390423E-13, -4.653657836759941941E-15, 38.00000000000000000 ) ) ;
#178 = PLANE ( 'NONE',  #296 ) ;
#179 =( NAMED_UNIT ( * ) SI_UNIT ( $, .STERADIAN. ) SOLID_ANGLE_UNIT ( ) );
#180 = CIRCLE ( 'NONE', #47, 1.300000000000000044 ) ;
#181 = SURFACE_STYLE_USAGE ( .BOTH. , #72 ) ;
#182 = AXIS2_PLACEMENT_3D ( 'NONE', #199, #335, #331 ) ;
#183 = ADVANCED_FACE ( 'NONE', ( #67 ), #14, .T. ) ;
#184 = ORIENTED_EDGE ( 'NONE', *, *, #106, .F. ) ;
#185 = AXIS2_PLACEMENT_3D ( 'NONE', #193, #40, #62 ) ;
#186 = VERTEX_POINT ( 'NONE', #98 ) ;
#187 = ORIENTED_EDGE ( 'NONE', *, *, #240, .T. ) ;
#188 = CIRCLE ( 'NONE', #309, 1.300000000000000044 ) ;
#189 = ORIENTED_EDGE ( 'NONE', *, *, #329, .T. ) ;
#190 = DIRECTION ( 'NONE',  ( 0.000000000000000000, 1.000000000000000000, 0.000000000000000000 ) ) ;
#191 = ORIENTED_EDGE ( 'NONE', *, *, #80, .F. ) ;
#192 = CARTESIAN_POINT ( 'NONE',  ( -1.299999999999977174, 1.592040838891558356E-16, 6.300000000000004263 ) ) ;
#193 = CARTESIAN_POINT ( 'NONE',  ( 1.316288464743861212E-13, -4.616918432785521081E-15, 37.69999999999999574 ) ) ;
#194 = CARTESIAN_POINT ( 'NONE',  ( 2.199633243471174014E-14, 0.000000000000000000, 6.299999999999999822 ) ) ;
#195 = CIRCLE ( 'NONE', #31, 1.199999999999995959 ) ;
#196 = DIRECTION ( 'NONE',  ( -3.491481338843133355E-15, 1.224646799147353207E-16, -1.000000000000000000 ) ) ;
#197 = DIRECTION ( 'NONE',  ( 3.491481338843133355E-15, -1.224646799147353207E-16, 1.000000000000000000 ) ) ;
#198 = DIRECTION ( 'NONE',  ( 0.000000000000000000, 1.000000000000000000, 0.000000000000000000 ) ) ;
#199 = CARTESIAN_POINT ( 'NONE',  ( 2.393905229808043985E-14, -8.396689234827515675E-16, 6.856417083418351766 ) ) ;
#200 = CARTESIAN_POINT ( 'NONE',  ( 2.199633243471174014E-14, -1.300000000000000711, 6.299999999999999822 ) ) ;
#201 = SURFACE_STYLE_USAGE ( .BOTH. , #42 ) ;
#202 =( LENGTH_UNIT ( ) NAMED_UNIT ( * ) SI_UNIT ( .MILLI., .METRE. ) );
#203 = VECTOR ( 'NONE', #36, 999.9999999999998863 ) ;
#204 = ADVANCED_FACE ( 'NONE', ( #311 ), #312, .T. ) ;
#205 = CIRCLE ( 'NONE', #167, 1.499999999999996225 ) ;
#206 = COLOUR_RGB ( '',1.000000000000000000, 1.000000000000000000, 1.000000000000000000 ) ;
#207 = ADVANCED_BREP_SHAPE_REPRESENTATION ( '67452', ( #160, #277, #29 ), #19 ) ;
#208 = ORIENTED_EDGE ( 'NONE', *, *, #318, .F. ) ;
#209 = ORIENTED_EDGE ( 'NONE', *, *, #318, .T. ) ;
#210 = VECTOR ( 'NONE', #223, 1000.000000000000000 ) ;
#211 = ORIENTED_EDGE ( 'NONE', *, *, #74, .F. ) ;
#212 = APPLICATION_CONTEXT ( 'automotive_design' ) ;
#213 = ORIENTED_EDGE ( 'NONE', *, *, #329, .F. ) ;
#214 = EDGE_CURVE ( 'NONE', #163, #186, #228, .T. ) ;
#215 = ORIENTED_EDGE ( 'NONE', *, *, #109, .T. ) ;
#216 = DIRECTION ( 'NONE',  ( -3.491481338843133355E-15, 1.224646799147353207E-16, -1.000000000000000000 ) ) ;
#217 = DIRECTION ( 'NONE',  ( 0.000000000000000000, -1.000000000000000000, 0.000000000000000000 ) ) ;
#218 = DIRECTION ( 'NONE',  ( 1.000000000000000000, 0.000000000000000000, -3.336006684570784088E-15 ) ) ;
#219 = STYLED_ITEM ( 'NONE', ( #44 ), #277 ) ;
#220 = DIRECTION ( 'NONE',  ( 3.327098416510788004E-15, 0.3382550599108818390, 0.9410544694355825746 ) ) ;
#221 = CARTESIAN_POINT ( 'NONE',  ( 7.796764640610530593E-14, -1.500000000000001554, 37.69999999999999574 ) ) ;
#222 = CARTESIAN_POINT ( 'NONE',  ( 2.296769236639608842E-14, -1.300000000000000711, 6.299999999999999822 ) ) ;
#223 = DIRECTION ( 'NONE',  ( -3.491481338843133355E-15, 1.224646799147353207E-16, -1.000000000000000000 ) ) ;
#224 = DIRECTION ( 'NONE',  ( 3.491481338843133355E-15, -1.224646799147353207E-16, 1.000000000000000000 ) ) ;
#225 = CIRCLE ( 'NONE', #275, 1.299999999999999156 ) ;
#226 = DIRECTION ( 'NONE',  ( 3.491481338843133355E-15, -1.224646799147353207E-16, 1.000000000000000000 ) ) ;
#227 = CARTESIAN_POINT ( 'NONE',  ( 0.000000000000000000, 0.000000000000000000, 0.000000000000000000 ) ) ;
#228 = LINE ( 'NONE', #64, #203 ) ;
#229 = PRODUCT_CONTEXT ( 'NONE', #212, 'mechanical' ) ;
#230 = AXIS2_PLACEMENT_3D ( 'NONE', #278, #297, #217 ) ;
#231 = PRODUCT_RELATED_PRODUCT_CATEGORY ( 'part', '', ( #265 ) ) ;
#232 = ADVANCED_FACE ( 'NONE', ( #144 ), #302, .F. ) ;
#233 = VECTOR ( 'NONE', #252, 1000.000000000000000 ) ;
#234 = ORIENTED_EDGE ( 'NONE', *, *, #293, .F. ) ;
#235 = AXIS2_PLACEMENT_3D ( 'NONE', #279, #246, #152 ) ;
#236 = EDGE_LOOP ( 'NONE', ( #266, #52, #54, #184 ) ) ;
#237 = VERTEX_POINT ( 'NONE', #222 ) ;
#238 =( GEOMETRIC_REPRESENTATION_CONTEXT ( 3 ) GLOBAL_UNCERTAINTY_ASSIGNED_CONTEXT ( ( #168 ) ) GLOBAL_UNIT_ASSIGNED_CONTEXT ( ( #326, #90, #280 ) ) REPRESENTATION_CONTEXT ( 'NONE', 'WORKASPACE' ) );
#239 = ORIENTED_EDGE ( 'NONE', *, *, #148, .T. ) ;
#240 = EDGE_CURVE ( 'NONE', #343, #243, #50, .T. ) ;
#241 = DIRECTION ( 'NONE',  ( -3.491481338843133355E-15, 1.224646799147353207E-16, -1.000000000000000000 ) ) ;
#242 = AXIS2_PLACEMENT_3D ( 'NONE', #65, #170, #276 ) ;
#243 = VERTEX_POINT ( 'NONE', #120 ) ;
#244 = CARTESIAN_POINT ( 'NONE',  ( 2.199633243471174014E-14, 0.000000000000000000, 6.299999999999999822 ) ) ;
#245 = CARTESIAN_POINT ( 'NONE',  ( 1.836970198721019827E-16, -1.499999999999996891, -1.836970198721032399E-16 ) ) ;
#246 = DIRECTION ( 'NONE',  ( 3.491481338843133355E-15, -0.000000000000000000, 1.000000000000000000 ) ) ;
#247 = CARTESIAN_POINT ( 'NONE',  ( 2.215553651860089772E-14, 1.299999999999999156, 6.299999999999999822 ) ) ;
#248 = FACE_OUTER_BOUND ( 'NONE', #27, .T. ) ;
#249 = CARTESIAN_POINT ( 'NONE',  ( 1.326762908760390423E-13, -4.653657836759941941E-15, 38.00000000000000000 ) ) ;
#250 = DIRECTION ( 'NONE',  ( 1.000000000000000000, 0.000000000000000000, -3.336006684570784876E-15 ) ) ;
#251 = DIRECTION ( 'NONE',  ( -2.382254525458719047E-15, -0.7071067811865466846, -0.7071067811865483499 ) ) ;
#252 = DIRECTION ( 'NONE',  ( 3.491481338843133355E-15, -0.000000000000000000, 1.000000000000000000 ) ) ;
#253 = CARTESIAN_POINT ( 'NONE',  ( 2.313914291827671699E-14, 1.299999999999999156, 6.299999999999999822 ) ) ;
#254 = AXIS2_PLACEMENT_3D ( 'NONE', #146, #46, #255 ) ;
#255 = DIRECTION ( 'NONE',  ( 1.000000000000000000, 0.000000000000000000, -3.491481338843133355E-15 ) ) ;
#256 = CARTESIAN_POINT ( 'NONE',  ( 0.000000000000000000, 0.000000000000000000, 0.000000000000000000 ) ) ;
#257 = EDGE_CURVE ( 'NONE', #271, #163, #195, .T. ) ;
#258 = AXIS2_PLACEMENT_3D ( 'NONE', #306, #241, #149 ) ;
#259 =( NAMED_UNIT ( * ) SI_UNIT ( $, .STERADIAN. ) SOLID_ANGLE_UNIT ( ) );
#260 =( NAMED_UNIT ( * ) PLANE_ANGLE_UNIT ( ) SI_UNIT ( $, .RADIAN. ) );
#261 = DIRECTION ( 'NONE',  ( 1.000000000000000000, 0.000000000000000000, 0.000000000000000000 ) ) ;
#262 = ORIENTED_EDGE ( 'NONE', *, *, #333, .F. ) ;
#263 = EDGE_LOOP ( 'NONE', ( #102, #262, #104, #110 ) ) ;
#264 = VECTOR ( 'NONE', #13, 1000.000000000000000 ) ;
#265 = PRODUCT ( '67452', '67452', '', ( #229 ) ) ;
#266 = ORIENTED_EDGE ( 'NONE', *, *, #82, .T. ) ;
#267 = EDGE_CURVE ( 'NONE', #157, #79, #45, .T. ) ;
#268 = ORIENTED_EDGE ( 'NONE', *, *, #333, .T. ) ;
#269 = ADVANCED_FACE ( 'NONE', ( #17 ), #123, .T. ) ;
#270 = PRESENTATION_LAYER_ASSIGNMENT (  '', '', ( #139 ) ) ;
#271 = VERTEX_POINT ( 'NONE', #16 ) ;
#272 = FACE_OUTER_BOUND ( 'NONE', #84, .T. ) ;
#273 = UNCERTAINTY_MEASURE_WITH_UNIT (LENGTH_MEASURE( 1.000000000000000082E-05 ), #334, 'distance_accuracy_value', 'NONE');
#274 = DIRECTION ( 'NONE',  ( 3.491481338843133355E-15, -0.000000000000000000, 1.000000000000000000 ) ) ;
#275 = AXIS2_PLACEMENT_3D ( 'NONE', #12, #117, #250 ) ;
#276 = DIRECTION ( 'NONE',  ( -4.275831445896958607E-31, -1.000000000000000000, -1.224646799147353207E-16 ) ) ;
#277 = MANIFOLD_SOLID_BREP ( 'Corps-Déplacer/Copier1[2]', #75 ) ;
#278 = CARTESIAN_POINT ( 'NONE',  ( 2.199633243471174014E-14, -7.715274834628325378E-16, 6.299999999999999822 ) ) ;
#279 = CARTESIAN_POINT ( 'NONE',  ( 0.000000000000000000, 0.000000000000000000, 0.000000000000000000 ) ) ;
#280 =( NAMED_UNIT ( * ) SI_UNIT ( $, .STERADIAN. ) SOLID_ANGLE_UNIT ( ) );
#281 = CIRCLE ( 'NONE', #89, 1.199999999999995959 ) ;
#282 = LINE ( 'NONE', #247, #105 ) ;
#283 = DIRECTION ( 'NONE',  ( 3.491481338843133355E-15, -0.000000000000000000, 1.000000000000000000 ) ) ;
#284 = ADVANCED_FACE ( 'NONE', ( #248 ), #8, .F. ) ;
#285 = SURFACE_SIDE_STYLE ('',( #153 ) ) ;
#286 = FACE_OUTER_BOUND ( 'NONE', #56, .T. ) ;
#287 = PRESENTATION_STYLE_ASSIGNMENT (( #181 ) ) ;
#288 = CIRCLE ( 'NONE', #25, 1.299999999999999156 ) ;
#289 = AXIS2_PLACEMENT_3D ( 'NONE', #244, #274, #337 ) ;
#290 = AXIS2_PLACEMENT_3D ( 'NONE', #5, #216, #142 ) ;
#291 = ORIENTED_EDGE ( 'NONE', *, *, #330, .T. ) ;
#292 = EDGE_LOOP ( 'NONE', ( #189, #78, #83, #211 ) ) ;
#293 = EDGE_CURVE ( 'NONE', #157, #320, #298, .T. ) ;
#294 = ORIENTED_EDGE ( 'NONE', *, *, #109, .F. ) ;
#295 = ORIENTED_EDGE ( 'NONE', *, *, #82, .F. ) ;
#296 = AXIS2_PLACEMENT_3D ( 'NONE', #96, #196, #6 ) ;
#297 = DIRECTION ( 'NONE',  ( 3.491481338843133355E-15, -1.224646799147353207E-16, 1.000000000000000000 ) ) ;
#298 = CIRCLE ( 'NONE', #235, 1.300000000000000044 ) ;
#299 = VERTEX_POINT ( 'NONE', #221 ) ;
#300 = DIRECTION ( 'NONE',  ( -3.491481338843133355E-15, 1.224646799147359124E-16, -1.000000000000000000 ) ) ;
#301 = DIRECTION ( 'NONE',  ( -3.491481338843133355E-15, 1.224646799147359124E-16, -1.000000000000000000 ) ) ;
#302 = PLANE ( 'NONE',  #158 ) ;
#303 = DIRECTION ( 'NONE',  ( 3.641531520770512822E-14, -1.000000000000000000, 0.000000000000000000 ) ) ;
#304 = DIRECTION ( 'NONE',  ( 1.000000000000000000, 0.000000000000000000, -3.336006684570784876E-15 ) ) ;
#305 = EDGE_CURVE ( 'NONE', #271, #299, #175, .T. ) ;
#306 = CARTESIAN_POINT ( 'NONE',  ( 2.199633243471174014E-14, -7.715274834628325378E-16, 6.299999999999999822 ) ) ;
#307 = DIRECTION ( 'NONE',  ( 0.000000000000000000, -1.000000000000000000, 0.000000000000000000 ) ) ;
#308 = ADVANCED_FACE ( 'NONE', ( #336 ), #66, .T. ) ;
#309 = AXIS2_PLACEMENT_3D ( 'NONE', #310, #328, #92 ) ;
#310 = CARTESIAN_POINT ( 'NONE',  ( 0.000000000000000000, 0.000000000000000000, 0.000000000000000000 ) ) ;
#311 = FACE_OUTER_BOUND ( 'NONE', #263, .T. ) ;
#312 = CONICAL_SURFACE ( 'NONE', #134, 1.499999999999996891, 0.7853981633974472798 ) ;
#313 =( NAMED_UNIT ( * ) PLANE_ANGLE_UNIT ( ) SI_UNIT ( $, .RADIAN. ) );
#314 = PRODUCT_DEFINITION_FORMATION_WITH_SPECIFIED_SOURCE ( 'ANY', '', #265, .NOT_KNOWN. ) ;
#315 = DIRECTION ( 'NONE',  ( 0.000000000000000000, 0.000000000000000000, 1.000000000000000000 ) ) ;
#316 = CONICAL_SURFACE ( 'NONE', #150, 1.499999999999996891, 0.7853981633974472798 ) ;
#317 = EDGE_LOOP ( 'NONE', ( #319, #130 ) ) ;
#318 = EDGE_CURVE ( 'NONE', #237, #343, #97, .T. ) ;
#319 = ORIENTED_EDGE ( 'NONE', *, *, #156, .T. ) ;
#320 = VERTEX_POINT ( 'NONE', #118 ) ;
#321 = COLOUR_RGB ( '',1.000000000000000000, 1.000000000000000000, 1.000000000000000000 ) ;
#322 = ORIENTED_EDGE ( 'NONE', *, *, #240, .F. ) ;
#323 = EDGE_LOOP ( 'NONE', ( #159, #86, #209, #187 ) ) ;
#324 = CARTESIAN_POINT ( 'NONE',  ( 1.300000000000020917, 0.000000000000000000, 6.299999999999995381 ) ) ;
#325 = CYLINDRICAL_SURFACE ( 'NONE', #290, 1.499999999999996891 ) ;
#326 =( LENGTH_UNIT ( ) NAMED_UNIT ( * ) SI_UNIT ( .MILLI., .METRE. ) );
#327 = LINE ( 'NONE', #113, #210 ) ;
#328 = DIRECTION ( 'NONE',  ( 3.491481338843133355E-15, -0.000000000000000000, 1.000000000000000000 ) ) ;
#329 = EDGE_CURVE ( 'NONE', #320, #157, #188, .T. ) ;
#330 = EDGE_CURVE ( 'NONE', #237, #341, #180, .T. ) ;
#331 = DIRECTION ( 'NONE',  ( 0.000000000000000000, 1.000000000000000000, 0.000000000000000000 ) ) ;
#332 = CARTESIAN_POINT ( 'NONE',  ( 1.300000000000021361, 0.000000000000000000, 6.299999999999995381 ) ) ;
#333 = EDGE_CURVE ( 'NONE', #163, #271, #281, .T. ) ;
#334 =( LENGTH_UNIT ( ) NAMED_UNIT ( * ) SI_UNIT ( .MILLI., .METRE. ) );
#335 = DIRECTION ( 'NONE',  ( -3.491481338843133355E-15, 1.224646799147353207E-16, -1.000000000000000000 ) ) ;
#336 = FACE_OUTER_BOUND ( 'NONE', #236, .T. ) ;
#337 = DIRECTION ( 'NONE',  ( 1.000000000000000000, 0.000000000000000000, -3.336006684570784088E-15 ) ) ;
#338 = AXIS2_PLACEMENT_3D ( 'NONE', #37, #197, #58 ) ;
#339 =( NAMED_UNIT ( * ) PLANE_ANGLE_UNIT ( ) SI_UNIT ( $, .RADIAN. ) );
#340 = EDGE_CURVE ( 'NONE', #79, #30, #288, .T. ) ;
#341 = VERTEX_POINT ( 'NONE', #253 ) ;
#342 = AXIS2_PLACEMENT_3D ( 'NONE', #141, #114, #218 ) ;
#343 = VERTEX_POINT ( 'NONE', #125 ) ;
ENDSEC;
END-ISO-10303-21;
