ISO-10303-21;
HEADER;
FILE_DESCRIPTION (( 'STEP AP214' ),
    '1' );
FILE_NAME ('67420.step',
    '2024-04-04T13:00:08',
    ( '' ),
    ( '' ),
    'SwSTEP 2.0',
    'SolidWorks 2022',
    '' );
FILE_SCHEMA (( 'AUTOMOTIVE_DESIGN' ));
ENDSEC;

DATA;
#1 = MANIFOLD_SOLID_BREP ( 'Corps-Déplacer/Copier1[2]', #45 ) ;
#2 =( NAMED_UNIT ( * ) SI_UNIT ( $, .STERADIAN. ) SOLID_ANGLE_UNIT ( ) );
#3 = CARTESIAN_POINT ( 'NONE',  ( -1.049999999999984057, 1.285879139104720485E-16, 4.500000000000003553 ) ) ;
#4 = PRODUCT_DEFINITION_FORMATION_WITH_SPECIFIED_SOURCE ( 'ANY', '', #265, .NOT_KNOWN. ) ;
#5 = LINE ( 'NONE', #135, #338 ) ;
#6 = VERTEX_POINT ( 'NONE', #331 ) ;
#7 = DIRECTION ( 'NONE',  ( 3.491481338843133355E-15, -0.000000000000000000, 1.000000000000000000 ) ) ;
#8 = ORIENTED_EDGE ( 'NONE', *, *, #294, .F. ) ;
#9 = EDGE_LOOP ( 'NONE', ( #35, #111, #37, #334 ) ) ;
#10 = CARTESIAN_POINT ( 'NONE',  ( -3.099977798275294946E-31, 1.050000000000000044, -8.878689293818310814E-17 ) ) ;
#11 = EDGE_LOOP ( 'NONE', ( #89, #193, #330, #250 ) ) ;
#12 = DIRECTION ( 'NONE',  ( 0.000000000000000000, -1.000000000000000000, 0.000000000000000000 ) ) ;
#13 = SURFACE_STYLE_FILL_AREA ( #258 ) ;
#14 = SURFACE_SIDE_STYLE ('',( #63 ) ) ;
#15 = ADVANCED_FACE ( 'NONE', ( #94 ), #34, .T. ) ;
#16 = MECHANICAL_DESIGN_GEOMETRIC_PRESENTATION_REPRESENTATION (  '', ( #168 ), #103 ) ;
#17 = CYLINDRICAL_SURFACE ( 'NONE', #313, 1.499999999999995781 ) ;
#18 = CIRCLE ( 'NONE', #109, 1.050000000000000044 ) ;
#19 = EDGE_CURVE ( 'NONE', #246, #299, #267, .T. ) ;
#20 = DIRECTION ( 'NONE',  ( -3.491481338843133355E-15, 1.224646799147359124E-16, -1.000000000000000000 ) ) ;
#21 = CONICAL_SURFACE ( 'NONE', #222, 1.499999999999995781, 0.7853981633974450594 ) ;
#22 = ADVANCED_FACE ( 'NONE', ( #65 ), #223, .T. ) ;
#23 = DIRECTION ( 'NONE',  ( 0.000000000000000000, 1.000000000000000000, 0.000000000000000000 ) ) ;
#24 = DIRECTION ( 'NONE',  ( 1.000000000000000000, 0.000000000000000000, -3.491481338843133355E-15 ) ) ;
#25 = CARTESIAN_POINT ( 'NONE',  ( 1.789722587108390187E-14, -1.050000000000000488, 4.500000000000000888 ) ) ;
#26 = AXIS2_PLACEMENT_3D ( 'NONE', #170, #270, #221 ) ;
#27 = ORIENTED_EDGE ( 'NONE', *, *, #50, .F. ) ;
#28 = AXIS2_PLACEMENT_3D ( 'NONE', #10, #172, #88 ) ;
#29 = DIRECTION ( 'NONE',  ( 3.285674118869262210E-15, -0.3382550599108818945, 0.9410544694355824635 ) ) ;
#30 = EDGE_LOOP ( 'NONE', ( #119, #70, #67, #62 ) ) ;
#31 = CARTESIAN_POINT ( 'NONE',  ( 1.805336833797519170E-14, 1.049999999999999378, 4.500000000000000888 ) ) ;
#32 = PRESENTATION_STYLE_ASSIGNMENT (( #171 ) ) ;
#33 = EDGE_LOOP ( 'NONE', ( #227, #225, #295, #8 ) ) ;
#34 = CONICAL_SURFACE ( 'NONE', #98, 1.050000000000000044, 0.3450620389298188484 ) ;
#35 = ORIENTED_EDGE ( 'NONE', *, *, #339, .T. ) ;
#36 =( NAMED_UNIT ( * ) PLANE_ANGLE_UNIT ( ) SI_UNIT ( $, .RADIAN. ) );
#37 = ORIENTED_EDGE ( 'NONE', *, *, #155, .F. ) ;
#38 = DIRECTION ( 'NONE',  ( 4.275831445896958607E-31, 1.000000000000000000, 1.224646799147353207E-16 ) ) ;
#39 = FILL_AREA_STYLE_COLOUR ( '', #126 ) ;
#40 = LINE ( 'NONE', #158, #83 ) ;
#41 = EDGE_CURVE ( 'NONE', #307, #254, #150, .T. ) ;
#42 = CIRCLE ( 'NONE', #131, 1.199999999999995959 ) ;
#43 = FACE_OUTER_BOUND ( 'NONE', #198, .T. ) ;
#44 = DIRECTION ( 'NONE',  ( 0.000000000000000000, 1.000000000000000000, 0.000000000000000000 ) ) ;
#45 = CLOSED_SHELL ( 'NONE', ( #207, #335, #263, #324 ) ) ;
#46 = AXIS2_PLACEMENT_3D ( 'NONE', #144, #194, #245 ) ;
#47 = LINE ( 'NONE', #216, #211 ) ;
#48 = VECTOR ( 'NONE', #29, 1000.000000000000000 ) ;
#49 = CYLINDRICAL_SURFACE ( 'NONE', #242, 1.049999999999999822 ) ;
#50 = EDGE_CURVE ( 'NONE', #196, #173, #233, .T. ) ;
#51 = DIRECTION ( 'NONE',  ( -3.491481338843133355E-15, 1.224646799147353207E-16, -1.000000000000000000 ) ) ;
#52 = CIRCLE ( 'NONE', #236, 1.499999999999993561 ) ;
#53 = DIRECTION ( 'NONE',  ( -3.491481338843133355E-15, 1.224646799147353207E-16, -1.000000000000000000 ) ) ;
#54 = CARTESIAN_POINT ( 'NONE',  ( 1.326762908760390423E-13, -4.653657836759941941E-15, 38.00000000000000000 ) ) ;
#55 = DIRECTION ( 'NONE',  ( 3.327098416510788398E-15, 0.3382550599108817280, 0.9410544694355825746 ) ) ;
#56 = ORIENTED_EDGE ( 'NONE', *, *, #234, .T. ) ;
#57 = DIRECTION ( 'NONE',  ( -3.491481338843133355E-15, 1.224646799147353207E-16, -1.000000000000000000 ) ) ;
#58 = EDGE_LOOP ( 'NONE', ( #61, #147, #200, #280 ) ) ;
#59 = CIRCLE ( 'NONE', #259, 1.499999999999993561 ) ;
#60 = CARTESIAN_POINT ( 'NONE',  ( 1.584025393870457390E-14, 1.049999999999999378, 4.500000000000000888 ) ) ;
#61 = ORIENTED_EDGE ( 'NONE', *, *, #297, .F. ) ;
#62 = ORIENTED_EDGE ( 'NONE', *, *, #275, .F. ) ;
#63 = SURFACE_STYLE_FILL_AREA ( #257 ) ;
#64 = ORIENTED_EDGE ( 'NONE', *, *, #99, .T. ) ;
#65 = FACE_OUTER_BOUND ( 'NONE', #279, .T. ) ;
#66 = PLANE ( 'NONE',  #28 ) ;
#67 = ORIENTED_EDGE ( 'NONE', *, *, #76, .T. ) ;
#68 = CIRCLE ( 'NONE', #311, 1.499999999999995781 ) ;
#69 = FILL_AREA_STYLE_COLOUR ( '', #95 ) ;
#70 = ORIENTED_EDGE ( 'NONE', *, *, #99, .F. ) ;
#71 = AXIS2_PLACEMENT_3D ( 'NONE', #128, #316, #159 ) ;
#72 = CARTESIAN_POINT ( 'NONE',  ( 1.316288464743861212E-13, -4.616918432785521081E-15, 37.69999999999999574 ) ) ;
#73 = SURFACE_SIDE_STYLE ('',( #213 ) ) ;
#74 = AXIS2_PLACEMENT_3D ( 'NONE', #300, #192, #243 ) ;
#75 = CARTESIAN_POINT ( 'NONE',  ( 1.321525686752125943E-13, 1.199999999999991518, 38.00000000000000000 ) ) ;
#76 = EDGE_CURVE ( 'NONE', #180, #175, #40, .T. ) ;
#77 =( GEOMETRIC_REPRESENTATION_CONTEXT ( 3 ) GLOBAL_UNCERTAINTY_ASSIGNED_CONTEXT ( ( #84 ) ) GLOBAL_UNIT_ASSIGNED_CONTEXT ( ( #203, #36, #179 ) ) REPRESENTATION_CONTEXT ( 'NONE', 'WORKASPACE' ) );
#78 = DIRECTION ( 'NONE',  ( 3.491481338843133355E-15, -1.224646799147353207E-16, 1.000000000000000000 ) ) ;
#79 = DIRECTION ( 'NONE',  ( 3.491481338843133355E-15, -1.224646799147353207E-16, 1.000000000000000000 ) ) ;
#80 = FACE_OUTER_BOUND ( 'NONE', #325, .T. ) ;
#81 = DIRECTION ( 'NONE',  ( -3.491481338843133355E-15, 1.224646799147353207E-16, -1.000000000000000000 ) ) ;
#82 = ADVANCED_FACE ( 'NONE', ( #132 ), #17, .T. ) ;
#83 = VECTOR ( 'NONE', #190, 1000.000000000000000 ) ;
#84 = UNCERTAINTY_MEASURE_WITH_UNIT (LENGTH_MEASURE( 1.000000000000000082E-05 ), #203, 'distance_accuracy_value', 'NONE');
#85 = EDGE_LOOP ( 'NONE', ( #64, #333 ) ) ;
#86 = CARTESIAN_POINT ( 'NONE',  ( 7.603951311575196149E-14, -1.499999999999994227, 5.751938437691300088 ) ) ;
#87 = ADVANCED_FACE ( 'NONE', ( #319 ), #21, .T. ) ;
#88 = DIRECTION ( 'NONE',  ( 1.000000000000000000, 0.000000000000000000, -3.491481338843133355E-15 ) ) ;
#89 = ORIENTED_EDGE ( 'NONE', *, *, #252, .T. ) ;
#90 = ORIENTED_EDGE ( 'NONE', *, *, #234, .F. ) ;
#91 = SHAPE_DEFINITION_REPRESENTATION ( #105, #133 ) ;
#92 = VERTEX_POINT ( 'NONE', #157 ) ;
#93 = PRODUCT_RELATED_PRODUCT_CATEGORY ( 'part', '', ( #265 ) ) ;
#94 = FACE_OUTER_BOUND ( 'NONE', #33, .T. ) ;
#95 = COLOUR_RGB ( '',1.000000000000000000, 1.000000000000000000, 1.000000000000000000 ) ;
#96 =( GEOMETRIC_REPRESENTATION_CONTEXT ( 3 ) GLOBAL_UNCERTAINTY_ASSIGNED_CONTEXT ( ( #220 ) ) GLOBAL_UNIT_ASSIGNED_CONTEXT ( ( #286, #291, #2 ) ) REPRESENTATION_CONTEXT ( 'NONE', 'WORKASPACE' ) );
#97 = CARTESIAN_POINT ( 'NONE',  ( 1.571166602479410325E-14, -5.510910596163089556E-16, 4.500000000000000888 ) ) ;
#98 = AXIS2_PLACEMENT_3D ( 'NONE', #201, #118, #12 ) ;
#99 = EDGE_CURVE ( 'NONE', #180, #307, #42, .T. ) ;
#100 = DIRECTION ( 'NONE',  ( 3.491481338843133355E-15, -0.000000000000000000, 1.000000000000000000 ) ) ;
#101 = EDGE_CURVE ( 'NONE', #301, #224, #52, .T. ) ;
#102 = CARTESIAN_POINT ( 'NONE',  ( 1.571166602479410325E-14, 0.000000000000000000, 4.500000000000000888 ) ) ;
#103 =( GEOMETRIC_REPRESENTATION_CONTEXT ( 3 ) GLOBAL_UNCERTAINTY_ASSIGNED_CONTEXT ( ( #298 ) ) GLOBAL_UNIT_ASSIGNED_CONTEXT ( ( #153, #125, #231 ) ) REPRESENTATION_CONTEXT ( 'NONE', 'WORKASPACE' ) );
#104 = CIRCLE ( 'NONE', #302, 1.049999999999999378 ) ;
#105 = PRODUCT_DEFINITION_SHAPE ( 'NONE', 'NONE',  #321 ) ;
#106 = FILL_AREA_STYLE ('',( #107 ) ) ;
#107 = FILL_AREA_STYLE_COLOUR ( '', #249 ) ;
#108 = FACE_OUTER_BOUND ( 'NONE', #85, .T. ) ;
#109 = AXIS2_PLACEMENT_3D ( 'NONE', #296, #7, #24 ) ;
#110 = CARTESIAN_POINT ( 'NONE',  ( 1.323178959930974906E-13, -1.200000000000000622, 38.00000000000000000 ) ) ;
#111 = ORIENTED_EDGE ( 'NONE', *, *, #297, .T. ) ;
#112 = LINE ( 'NONE', #3, #287 ) ;
#113 = EDGE_CURVE ( 'NONE', #307, #180, #146, .T. ) ;
#114 = MECHANICAL_DESIGN_GEOMETRIC_PRESENTATION_REPRESENTATION (  '', ( #283 ), #182 ) ;
#115 = AXIS2_PLACEMENT_3D ( 'NONE', #97, #282, #312 ) ;
#116 = ORIENTED_EDGE ( 'NONE', *, *, #314, .F. ) ;
#117 = MANIFOLD_SOLID_BREP ( 'Corps-Déplacer/Copier1[1]', #202 ) ;
#118 = DIRECTION ( 'NONE',  ( 3.491481338843133355E-15, -1.224646799147353207E-16, 1.000000000000000000 ) ) ;
#119 = ORIENTED_EDGE ( 'NONE', *, *, #41, .F. ) ;
#120 = PRESENTATION_STYLE_ASSIGNMENT (( #253 ) ) ;
#121 = ORIENTED_EDGE ( 'NONE', *, *, #113, .F. ) ;
#122 = CARTESIAN_POINT ( 'NONE',  ( 1.571166602479410325E-14, 0.000000000000000000, 4.500000000000000888 ) ) ;
#123 = APPLICATION_PROTOCOL_DEFINITION ( 'draft international standard', 'automotive_design', 1998, #217 ) ;
#124 = EDGE_LOOP ( 'NONE', ( #271, #116, #143, #309 ) ) ;
#125 =( NAMED_UNIT ( * ) PLANE_ANGLE_UNIT ( ) SI_UNIT ( $, .RADIAN. ) );
#126 = COLOUR_RGB ( '',1.000000000000000000, 1.000000000000000000, 1.000000000000000000 ) ;
#127 = CARTESIAN_POINT ( 'NONE',  ( 1.571166602479410325E-14, 0.000000000000000000, 4.500000000000000888 ) ) ;
#128 = CARTESIAN_POINT ( 'NONE',  ( 1.326762908760390423E-13, -4.653657836759941941E-15, 38.00000000000000000 ) ) ;
#129 = CARTESIAN_POINT ( 'NONE',  ( 1.050000000000014921, 0.000000000000000000, 4.499999999999997335 ) ) ;
#130 = CARTESIAN_POINT ( 'NONE',  ( 1.316288464743861212E-13, -4.616918432785521081E-15, 37.69999999999999574 ) ) ;
#131 = AXIS2_PLACEMENT_3D ( 'NONE', #318, #78, #237 ) ;
#132 = FACE_OUTER_BOUND ( 'NONE', #58, .T. ) ;
#133 = ADVANCED_BREP_SHAPE_REPRESENTATION ( '67420', ( #117, #1, #212 ), #77 ) ;
#134 = LINE ( 'NONE', #262, #206 ) ;
#135 = CARTESIAN_POINT ( 'NONE',  ( 1.836970198721018348E-16, -1.499999999999995781, -1.836970198721030920E-16 ) ) ;
#136 = FACE_OUTER_BOUND ( 'NONE', #124, .T. ) ;
#137 = CONICAL_SURFACE ( 'NONE', #261, 1.050000000000000044, 0.3450620389298188484 ) ;
#138 = AXIS2_PLACEMENT_3D ( 'NONE', #327, #218, #292 ) ;
#139 = UNCERTAINTY_MEASURE_WITH_UNIT (LENGTH_MEASURE( 1.000000000000000082E-05 ), #229, 'distance_accuracy_value', 'NONE');
#140 = EDGE_LOOP ( 'NONE', ( #121, #177, #199, #303 ) ) ;
#141 = EDGE_CURVE ( 'NONE', #175, #224, #47, .T. ) ;
#142 = DIRECTION ( 'NONE',  ( 0.000000000000000000, 1.000000000000000000, 0.000000000000000000 ) ) ;
#143 = ORIENTED_EDGE ( 'NONE', *, *, #294, .T. ) ;
#144 = CARTESIAN_POINT ( 'NONE',  ( 0.000000000000000000, 0.000000000000000000, 0.000000000000000000 ) ) ;
#145 = ORIENTED_EDGE ( 'NONE', *, *, #228, .F. ) ;
#146 = CIRCLE ( 'NONE', #71, 1.199999999999995959 ) ;
#147 = ORIENTED_EDGE ( 'NONE', *, *, #275, .T. ) ;
#148 = ORIENTED_EDGE ( 'NONE', *, *, #50, .T. ) ;
#149 = ORIENTED_EDGE ( 'NONE', *, *, #181, .T. ) ;
#150 = LINE ( 'NONE', #152, #290 ) ;
#151 = SURFACE_SIDE_STYLE ('',( #13 ) ) ;
#152 = CARTESIAN_POINT ( 'NONE',  ( 1.318125434942582113E-13, -1.500000000000000222, 37.69999999999999574 ) ) ;
#153 =( LENGTH_UNIT ( ) NAMED_UNIT ( * ) SI_UNIT ( .MILLI., .METRE. ) );
#154 = DIRECTION ( 'NONE',  ( 3.819167204710537237E-14, -1.000000000000000000, 0.000000000000000000 ) ) ;
#155 = EDGE_CURVE ( 'NONE', #224, #301, #59, .T. ) ;
#156 = CARTESIAN_POINT ( 'NONE',  ( 1.571166602479410325E-14, 0.000000000000000000, 4.500000000000000888 ) ) ;
#157 = CARTESIAN_POINT ( 'NONE',  ( 1.050000000000000044, 0.000000000000000000, -3.666055405785290023E-15 ) ) ;
#158 = CARTESIAN_POINT ( 'NONE',  ( 1.316288464743861212E-13, 1.499999999999991118, 37.69999999999999574 ) ) ;
#159 = DIRECTION ( 'NONE',  ( 0.000000000000000000, -1.000000000000000000, 0.000000000000000000 ) ) ;
#160 = AXIS2_PLACEMENT_3D ( 'NONE', #122, #205, #310 ) ;
#161 = DIRECTION ( 'NONE',  ( -3.491481338843133355E-15, 1.224646799147353207E-16, -1.000000000000000000 ) ) ;
#162 = PLANE ( 'NONE',  #138 ) ;
#163 = EDGE_CURVE ( 'NONE', #92, #173, #134, .T. ) ;
#164 = FACE_OUTER_BOUND ( 'NONE', #9, .T. ) ;
#165 = ADVANCED_FACE ( 'NONE', ( #209 ), #178, .T. ) ;
#166 = DIRECTION ( 'NONE',  ( -4.275831445896958607E-31, -1.000000000000000000, -1.224646799147353207E-16 ) ) ;
#167 = AXIS2_PLACEMENT_3D ( 'NONE', #54, #320, #166 ) ;
#168 = STYLED_ITEM ( 'NONE', ( #120 ), #133 ) ;
#169 = PRODUCT_DEFINITION_CONTEXT ( 'detailed design', #217, 'design' ) ;
#170 = CARTESIAN_POINT ( 'NONE',  ( 0.000000000000000000, 0.000000000000000000, 0.000000000000000000 ) ) ;
#171 = SURFACE_STYLE_USAGE ( .BOTH. , #14 ) ;
#172 = DIRECTION ( 'NONE',  ( 3.491481338843133355E-15, -0.000000000000000000, 1.000000000000000000 ) ) ;
#173 = VERTEX_POINT ( 'NONE', #129 ) ;
#174 = DIRECTION ( 'NONE',  ( -3.491481338843133355E-15, 1.224646799147359124E-16, -1.000000000000000000 ) ) ;
#175 = VERTEX_POINT ( 'NONE', #187 ) ;
#176 = FACE_OUTER_BOUND ( 'NONE', #277, .T. ) ;
#177 = ORIENTED_EDGE ( 'NONE', *, *, #41, .T. ) ;
#178 = CONICAL_SURFACE ( 'NONE', #288, 1.499999999999995781, 0.7853981633974450594 ) ;
#179 =( NAMED_UNIT ( * ) SI_UNIT ( $, .STERADIAN. ) SOLID_ANGLE_UNIT ( ) );
#180 = VERTEX_POINT ( 'NONE', #75 ) ;
#181 = EDGE_CURVE ( 'NONE', #173, #196, #104, .T. ) ;
#182 =( GEOMETRIC_REPRESENTATION_CONTEXT ( 3 ) GLOBAL_UNCERTAINTY_ASSIGNED_CONTEXT ( ( #139 ) ) GLOBAL_UNIT_ASSIGNED_CONTEXT ( ( #229, #248, #337 ) ) REPRESENTATION_CONTEXT ( 'NONE', 'WORKASPACE' ) );
#183 = APPLICATION_CONTEXT ( 'automotive_design' ) ;
#184 = DIRECTION ( 'NONE',  ( 0.000000000000000000, 1.000000000000000000, 0.000000000000000000 ) ) ;
#185 = DIRECTION ( 'NONE',  ( 4.275831445896958607E-31, 1.000000000000000000, 1.224646799147353207E-16 ) ) ;
#186 = CIRCLE ( 'NONE', #26, 1.050000000000000044 ) ;
#187 = CARTESIAN_POINT ( 'NONE',  ( 7.585581609587990925E-14, 1.499999999999991118, 37.69999999999999574 ) ) ;
#188 = AXIS2_PLACEMENT_3D ( 'NONE', #323, #81, #142 ) ;
#189 = DIRECTION ( 'NONE',  ( 1.000000000000000000, 0.000000000000000000, -3.304235192336775906E-15 ) ) ;
#190 = DIRECTION ( 'NONE',  ( -2.468850131082272838E-15, 0.7071067811865453523, -0.7071067811865496822 ) ) ;
#191 = CARTESIAN_POINT ( 'NONE',  ( 1.571166602479410325E-14, -1.050000000000000488, 4.500000000000000888 ) ) ;
#192 = DIRECTION ( 'NONE',  ( -3.491481338843133355E-15, 1.224646799147359124E-16, -1.000000000000000000 ) ) ;
#193 = ORIENTED_EDGE ( 'NONE', *, *, #228, .T. ) ;
#194 = DIRECTION ( 'NONE',  ( -3.491481338843133355E-15, 1.224646799147353207E-16, -1.000000000000000000 ) ) ;
#195 = CARTESIAN_POINT ( 'NONE',  ( 7.603951311575193624E-14, -1.500000000000000222, 37.69999999999999574 ) ) ;
#196 = VERTEX_POINT ( 'NONE', #235 ) ;
#197 = CYLINDRICAL_SURFACE ( 'NONE', #274, 1.049999999999999822 ) ;
#198 = EDGE_LOOP ( 'NONE', ( #305, #90 ) ) ;
#199 = ORIENTED_EDGE ( 'NONE', *, *, #339, .F. ) ;
#200 = ORIENTED_EDGE ( 'NONE', *, *, #141, .T. ) ;
#201 = CARTESIAN_POINT ( 'NONE',  ( 1.571166602479410325E-14, -5.510910596163089556E-16, 4.500000000000000888 ) ) ;
#202 = CLOSED_SHELL ( 'NONE', ( #165, #15, #226, #22, #238, #82, #215, #87 ) ) ;
#203 =( LENGTH_UNIT ( ) NAMED_UNIT ( * ) SI_UNIT ( .MILLI., .METRE. ) );
#204 = ORIENTED_EDGE ( 'NONE', *, *, #19, .T. ) ;
#205 = DIRECTION ( 'NONE',  ( 3.491481338843133355E-15, -0.000000000000000000, 1.000000000000000000 ) ) ;
#206 = VECTOR ( 'NONE', #240, 1000.000000000000000 ) ;
#207 = ADVANCED_FACE ( 'NONE', ( #210 ), #49, .T. ) ;
#208 = DIRECTION ( 'NONE',  ( 0.000000000000000000, 0.000000000000000000, 1.000000000000000000 ) ) ;
#209 = FACE_OUTER_BOUND ( 'NONE', #140, .T. ) ;
#210 = FACE_OUTER_BOUND ( 'NONE', #11, .T. ) ;
#211 = VECTOR ( 'NONE', #53, 1000.000000000000000 ) ;
#212 = AXIS2_PLACEMENT_3D ( 'NONE', #329, #208, #284 ) ;
#213 = SURFACE_STYLE_FILL_AREA ( #106 ) ;
#214 = MECHANICAL_DESIGN_GEOMETRIC_PRESENTATION_REPRESENTATION (  '', ( #340 ), #96 ) ;
#215 = ADVANCED_FACE ( 'NONE', ( #136 ), #137, .T. ) ;
#216 = CARTESIAN_POINT ( 'NONE',  ( 6.413747168845419518E-31, 1.499999999999995781, 1.836970198721024511E-16 ) ) ;
#217 = APPLICATION_CONTEXT ( 'automotive_design' ) ;
#218 = DIRECTION ( 'NONE',  ( -3.491481338843133355E-15, 0.000000000000000000, -1.000000000000000000 ) ) ;
#219 = DIRECTION ( 'NONE',  ( 3.491481338843133355E-15, -0.000000000000000000, 1.000000000000000000 ) ) ;
#220 = UNCERTAINTY_MEASURE_WITH_UNIT (LENGTH_MEASURE( 1.000000000000000082E-05 ), #286, 'distance_accuracy_value', 'NONE');
#221 = DIRECTION ( 'NONE',  ( 1.000000000000000000, 0.000000000000000000, -3.491481338843133355E-15 ) ) ;
#222 = AXIS2_PLACEMENT_3D ( 'NONE', #130, #20, #184 ) ;
#223 = PLANE ( 'NONE',  #326 ) ;
#224 = VERTEX_POINT ( 'NONE', #276 ) ;
#225 = ORIENTED_EDGE ( 'NONE', *, *, #304, .T. ) ;
#226 = ADVANCED_FACE ( 'NONE', ( #164 ), #273, .T. ) ;
#227 = ORIENTED_EDGE ( 'NONE', *, *, #19, .F. ) ;
#228 = EDGE_CURVE ( 'NONE', #6, #196, #112, .T. ) ;
#229 =( LENGTH_UNIT ( ) NAMED_UNIT ( * ) SI_UNIT ( .MILLI., .METRE. ) );
#230 = CIRCLE ( 'NONE', #74, 1.499999999999995781 ) ;
#231 =( NAMED_UNIT ( * ) SI_UNIT ( $, .STERADIAN. ) SOLID_ANGLE_UNIT ( ) );
#232 = CIRCLE ( 'NONE', #188, 1.050000000000000044 ) ;
#233 = CIRCLE ( 'NONE', #160, 1.049999999999999378 ) ;
#234 = EDGE_CURVE ( 'NONE', #6, #92, #18, .T. ) ;
#235 = CARTESIAN_POINT ( 'NONE',  ( -1.049999999999983613, 1.285879139104720239E-16, 4.500000000000003553 ) ) ;
#236 = AXIS2_PLACEMENT_3D ( 'NONE', #341, #51, #343 ) ;
#237 = DIRECTION ( 'NONE',  ( 0.000000000000000000, -1.000000000000000000, 0.000000000000000000 ) ) ;
#238 = ADVANCED_FACE ( 'NONE', ( #108 ), #247, .T. ) ;
#239 = SURFACE_STYLE_USAGE ( .BOTH. , #73 ) ;
#240 = DIRECTION ( 'NONE',  ( 3.491481338843133355E-15, -0.000000000000000000, 1.000000000000000000 ) ) ;
#241 = CARTESIAN_POINT ( 'NONE',  ( 1.571166602479410325E-14, -5.510910596163089556E-16, 4.500000000000000888 ) ) ;
#242 = AXIS2_PLACEMENT_3D ( 'NONE', #102, #264, #189 ) ;
#243 = DIRECTION ( 'NONE',  ( -3.730349362740525976E-14, -1.000000000000000000, 0.000000000000000000 ) ) ;
#244 = ORIENTED_EDGE ( 'NONE', *, *, #163, .T. ) ;
#245 = DIRECTION ( 'NONE',  ( 4.275831445896958607E-31, 1.000000000000000000, 1.224646799147353207E-16 ) ) ;
#246 = VERTEX_POINT ( 'NONE', #31 ) ;
#247 = PLANE ( 'NONE',  #167 ) ;
#248 =( NAMED_UNIT ( * ) PLANE_ANGLE_UNIT ( ) SI_UNIT ( $, .RADIAN. ) );
#249 = COLOUR_RGB ( '',1.000000000000000000, 1.000000000000000000, 1.000000000000000000 ) ;
#250 = ORIENTED_EDGE ( 'NONE', *, *, #163, .F. ) ;
#251 = ORIENTED_EDGE ( 'NONE', *, *, #314, .T. ) ;
#252 = EDGE_CURVE ( 'NONE', #92, #6, #186, .T. ) ;
#253 = SURFACE_STYLE_USAGE ( .BOTH. , #151 ) ;
#254 = VERTEX_POINT ( 'NONE', #195 ) ;
#255 = DIRECTION ( 'NONE',  ( -2.382254525458724175E-15, -0.7071067811865451302, -0.7071067811865499042 ) ) ;
#256 = APPLICATION_PROTOCOL_DEFINITION ( 'draft international standard', 'automotive_design', 1998, #183 ) ;
#257 = FILL_AREA_STYLE ('',( #69 ) ) ;
#258 = FILL_AREA_STYLE ('',( #39 ) ) ;
#259 = AXIS2_PLACEMENT_3D ( 'NONE', #268, #342, #23 ) ;
#260 = DIRECTION ( 'NONE',  ( 1.000000000000000000, 0.000000000000000000, -3.304235192336777484E-15 ) ) ;
#261 = AXIS2_PLACEMENT_3D ( 'NONE', #241, #79, #293 ) ;
#262 = CARTESIAN_POINT ( 'NONE',  ( 1.050000000000015365, 0.000000000000000000, 4.499999999999997335 ) ) ;
#263 = ADVANCED_FACE ( 'NONE', ( #80 ), #162, .F. ) ;
#264 = DIRECTION ( 'NONE',  ( 3.491481338843133355E-15, -0.000000000000000000, 1.000000000000000000 ) ) ;
#265 = PRODUCT ( '67420', '67420', '', ( #332 ) ) ;
#266 = PRESENTATION_LAYER_ASSIGNMENT (  '', '', ( #283 ) ) ;
#267 = CIRCLE ( 'NONE', #115, 1.050000000000000044 ) ;
#268 = CARTESIAN_POINT ( 'NONE',  ( 2.008278571737370048E-14, -7.044092996611278077E-16, 5.751938437691300088 ) ) ;
#269 = LINE ( 'NONE', #191, #48 ) ;
#270 = DIRECTION ( 'NONE',  ( 3.491481338843133355E-15, -0.000000000000000000, 1.000000000000000000 ) ) ;
#271 = ORIENTED_EDGE ( 'NONE', *, *, #304, .F. ) ;
#272 = VECTOR ( 'NONE', #55, 999.9999999999998863 ) ;
#273 = CYLINDRICAL_SURFACE ( 'NONE', #46, 1.499999999999995781 ) ;
#274 = AXIS2_PLACEMENT_3D ( 'NONE', #127, #306, #308 ) ;
#275 = EDGE_CURVE ( 'NONE', #254, #175, #230, .T. ) ;
#276 = CARTESIAN_POINT ( 'NONE',  ( 2.008278571737370048E-14, 1.499999999999992895, 5.751938437691300088 ) ) ;
#277 = EDGE_LOOP ( 'NONE', ( #145, #56, #244, #27 ) ) ;
#278 = CARTESIAN_POINT ( 'NONE',  ( 1.316288464743861212E-13, -4.616918432785521081E-15, 37.69999999999999574 ) ) ;
#279 = EDGE_LOOP ( 'NONE', ( #251, #204 ) ) ;
#280 = ORIENTED_EDGE ( 'NONE', *, *, #101, .F. ) ;
#281 = DIRECTION ( 'NONE',  ( -3.491481338843133355E-15, 1.224646799147353207E-16, -1.000000000000000000 ) ) ;
#282 = DIRECTION ( 'NONE',  ( -3.491481338843133355E-15, 1.224646799147353207E-16, -1.000000000000000000 ) ) ;
#283 = STYLED_ITEM ( 'NONE', ( #32 ), #1 ) ;
#284 = DIRECTION ( 'NONE',  ( 1.000000000000000000, 0.000000000000000000, 0.000000000000000000 ) ) ;
#285 = DIRECTION ( 'NONE',  ( -3.491481338843133355E-15, 1.224646799147359124E-16, -1.000000000000000000 ) ) ;
#286 =( LENGTH_UNIT ( ) NAMED_UNIT ( * ) SI_UNIT ( .MILLI., .METRE. ) );
#287 = VECTOR ( 'NONE', #219, 1000.000000000000000 ) ;
#288 = AXIS2_PLACEMENT_3D ( 'NONE', #72, #285, #44 ) ;
#289 = PRESENTATION_STYLE_ASSIGNMENT (( #239 ) ) ;
#290 = VECTOR ( 'NONE', #255, 1000.000000000000114 ) ;
#291 =( NAMED_UNIT ( * ) PLANE_ANGLE_UNIT ( ) SI_UNIT ( $, .RADIAN. ) );
#292 = DIRECTION ( 'NONE',  ( -1.000000000000000000, 0.000000000000000000, 3.491481338843133355E-15 ) ) ;
#293 = DIRECTION ( 'NONE',  ( 0.000000000000000000, -1.000000000000000000, 0.000000000000000000 ) ) ;
#294 = EDGE_CURVE ( 'NONE', #299, #301, #269, .T. ) ;
#295 = ORIENTED_EDGE ( 'NONE', *, *, #155, .T. ) ;
#296 = CARTESIAN_POINT ( 'NONE',  ( 0.000000000000000000, 0.000000000000000000, 0.000000000000000000 ) ) ;
#297 = EDGE_CURVE ( 'NONE', #254, #301, #5, .T. ) ;
#298 = UNCERTAINTY_MEASURE_WITH_UNIT (LENGTH_MEASURE( 1.000000000000000082E-05 ), #153, 'distance_accuracy_value', 'NONE');
#299 = VERTEX_POINT ( 'NONE', #25 ) ;
#300 = CARTESIAN_POINT ( 'NONE',  ( 1.316288464743861212E-13, -4.616918432785521081E-15, 37.69999999999999574 ) ) ;
#301 = VERTEX_POINT ( 'NONE', #86 ) ;
#302 = AXIS2_PLACEMENT_3D ( 'NONE', #156, #100, #260 ) ;
#303 = ORIENTED_EDGE ( 'NONE', *, *, #76, .F. ) ;
#304 = EDGE_CURVE ( 'NONE', #246, #224, #322, .T. ) ;
#305 = ORIENTED_EDGE ( 'NONE', *, *, #252, .F. ) ;
#306 = DIRECTION ( 'NONE',  ( 3.491481338843133355E-15, -0.000000000000000000, 1.000000000000000000 ) ) ;
#307 = VERTEX_POINT ( 'NONE', #110 ) ;
#308 = DIRECTION ( 'NONE',  ( 1.000000000000000000, 0.000000000000000000, -3.304235192336775906E-15 ) ) ;
#309 = ORIENTED_EDGE ( 'NONE', *, *, #101, .T. ) ;
#310 = DIRECTION ( 'NONE',  ( 1.000000000000000000, 0.000000000000000000, -3.304235192336777484E-15 ) ) ;
#311 = AXIS2_PLACEMENT_3D ( 'NONE', #278, #174, #154 ) ;
#312 = DIRECTION ( 'NONE',  ( 0.000000000000000000, 1.000000000000000000, 0.000000000000000000 ) ) ;
#313 = AXIS2_PLACEMENT_3D ( 'NONE', #315, #161, #185 ) ;
#314 = EDGE_CURVE ( 'NONE', #299, #246, #232, .T. ) ;
#315 = CARTESIAN_POINT ( 'NONE',  ( 0.000000000000000000, 0.000000000000000000, 0.000000000000000000 ) ) ;
#316 = DIRECTION ( 'NONE',  ( 3.491481338843133355E-15, -1.224646799147353207E-16, 1.000000000000000000 ) ) ;
#317 = PRESENTATION_LAYER_ASSIGNMENT (  '', '', ( #168 ) ) ;
#318 = CARTESIAN_POINT ( 'NONE',  ( 1.326762908760390423E-13, -4.653657836759941941E-15, 38.00000000000000000 ) ) ;
#319 = FACE_OUTER_BOUND ( 'NONE', #30, .T. ) ;
#320 = DIRECTION ( 'NONE',  ( 3.491481338843133355E-15, -1.224646799147353207E-16, 1.000000000000000000 ) ) ;
#321 = PRODUCT_DEFINITION ( 'UNKNOWN', '', #4, #169 ) ;
#322 = LINE ( 'NONE', #60, #272 ) ;
#323 = CARTESIAN_POINT ( 'NONE',  ( 1.571166602479410325E-14, -5.510910596163089556E-16, 4.500000000000000888 ) ) ;
#324 = ADVANCED_FACE ( 'NONE', ( #43 ), #66, .F. ) ;
#325 = EDGE_LOOP ( 'NONE', ( #149, #148 ) ) ;
#326 = AXIS2_PLACEMENT_3D ( 'NONE', #328, #281, #38 ) ;
#327 = CARTESIAN_POINT ( 'NONE',  ( 1.571166602479410325E-14, 1.049999999999999378, 4.500000000000000888 ) ) ;
#328 = CARTESIAN_POINT ( 'NONE',  ( 1.571166602479410325E-14, 1.049999999999999378, 4.500000000000000888 ) ) ;
#329 = CARTESIAN_POINT ( 'NONE',  ( 0.000000000000000000, 0.000000000000000000, 0.000000000000000000 ) ) ;
#330 = ORIENTED_EDGE ( 'NONE', *, *, #181, .F. ) ;
#331 = CARTESIAN_POINT ( 'NONE',  ( -1.050000000000000044, 1.285879139104730100E-16, 3.666055405785290023E-15 ) ) ;
#332 = PRODUCT_CONTEXT ( 'NONE', #183, 'mechanical' ) ;
#333 = ORIENTED_EDGE ( 'NONE', *, *, #113, .T. ) ;
#334 = ORIENTED_EDGE ( 'NONE', *, *, #141, .F. ) ;
#335 = ADVANCED_FACE ( 'NONE', ( #176 ), #197, .T. ) ;
#336 = PRESENTATION_LAYER_ASSIGNMENT (  '', '', ( #340 ) ) ;
#337 =( NAMED_UNIT ( * ) SI_UNIT ( $, .STERADIAN. ) SOLID_ANGLE_UNIT ( ) );
#338 = VECTOR ( 'NONE', #57, 1000.000000000000000 ) ;
#339 = EDGE_CURVE ( 'NONE', #175, #254, #68, .T. ) ;
#340 = STYLED_ITEM ( 'NONE', ( #289 ), #117 ) ;
#341 = CARTESIAN_POINT ( 'NONE',  ( 2.008278571737370048E-14, -7.044092996611278077E-16, 5.751938437691300088 ) ) ;
#342 = DIRECTION ( 'NONE',  ( -3.491481338843133355E-15, 1.224646799147353207E-16, -1.000000000000000000 ) ) ;
#343 = DIRECTION ( 'NONE',  ( 0.000000000000000000, 1.000000000000000000, 0.000000000000000000 ) ) ;
ENDSEC;
END-ISO-10303-21;
