ISO-10303-21;
HEADER;
FILE_DESCRIPTION (( 'STEP AP203' ),
    '1' );
FILE_NAME ('674.step',
    '2021-12-06T13:00:14',
    ( '' ),
    ( '' ),
    'SwSTEP 2.0',
    'SolidWorks 2019',
    '' );
FILE_SCHEMA (( 'CONFIG_CONTROL_DESIGN' ));
ENDSEC;

DATA;
#1 = DIRECTION ( 'NONE',  ( -3.491481338843133355E-15, 1.224646799147353207E-16, -1.000000000000000000 ) ) ;
#2 = LOCAL_TIME ( 14, 0, 14.00000000000000000, #140 ) ;
#3 = CARTESIAN_POINT ( 'NONE',  ( 1.047444401652940007E-14, 8.000000000000000000, 3.000000000000000000 ) ) ;
#4 = DATE_TIME_ROLE ( 'creation_date' ) ;
#5 = CC_DESIGN_SECURITY_CLASSIFICATION ( #107, ( #70 ) ) ;
#6 = EDGE_CURVE ( 'NONE', #104, #104, #97, .T. ) ;
#7 = ORIENTED_EDGE ( 'NONE', *, *, #6, .T. ) ;
#8 = AXIS2_PLACEMENT_3D ( 'NONE', #129, #137, #92 ) ;
#9 = DIRECTION ( 'NONE',  ( 4.275831445896958607E-31, 1.000000000000000000, 1.224646799147353207E-16 ) ) ;
#10 = CC_DESIGN_PERSON_AND_ORGANIZATION_ASSIGNMENT ( #108, #52, ( #70 ) ) ;
#11 = DIRECTION ( 'NONE',  ( 4.402125587170824932E-31, 1.000000000000000000, 1.239088197126290817E-16 ) ) ;
#12 = PLANE ( 'NONE',  #8 ) ;
#13 = CARTESIAN_POINT ( 'NONE',  ( 2.736911063134408342E-45, 31.50000000000000000, 0.0000000000000000000 ) ) ;
#14 = CARTESIAN_POINT ( 'NONE',  ( 0.0000000000000000000, 0.0000000000000000000, 0.0000000000000000000 ) ) ;
#15 = PRODUCT_DEFINITION ( 'UNKNOWN', '', #70, #76 ) ;
#16 =( NAMED_UNIT ( * ) SI_UNIT ( $, .STERADIAN. ) SOLID_ANGLE_UNIT ( ) );
#17 = PERSON_AND_ORGANIZATION_ROLE ( 'creator' ) ;
#18 = EDGE_CURVE ( 'NONE', #78, #78, #55, .T. ) ;
#19 = APPLICATION_CONTEXT ( 'configuration controlled 3d designs of mechanical parts and assemblies' ) ;
#20 = AXIS2_PLACEMENT_3D ( 'NONE', #144, #84, #9 ) ;
#21 = APPROVAL_DATE_TIME ( #120, #35 ) ;
#22 = APPROVAL ( #83, 'UNSPECIFIED' ) ;
#23 = PERSON_AND_ORGANIZATION ( #60, #46 ) ;
#24 = AXIS2_PLACEMENT_3D ( 'NONE', #131, #1, #47 ) ;
#25 = PRODUCT_DEFINITION_SHAPE ( 'NONE', 'NONE',  #15 ) ;
#26 = CC_DESIGN_APPROVAL ( #22, ( #107 ) ) ;
#27 = ORIENTED_EDGE ( 'NONE', *, *, #6, .F. ) ;
#28 = DIRECTION ( 'NONE',  ( 3.851859888774471706E-31, 1.000000000000000000, 1.084202172485504434E-16 ) ) ;
#29 = CALENDAR_DATE ( 2021, 6, 12 ) ;
#30 = SECURITY_CLASSIFICATION_LEVEL ( 'unclassified' ) ;
#31 = DIRECTION ( 'NONE',  ( -3.491481338843133355E-15, 1.224646799147353207E-16, -1.000000000000000000 ) ) ;
#32 = ADVANCED_FACE ( 'NONE', ( #88, #40 ), #38, .T. ) ;
#33 = DIRECTION ( 'NONE',  ( 1.000000000000000000, 0.0000000000000000000, 0.0000000000000000000 ) ) ;
#34 = APPROVAL_PERSON_ORGANIZATION ( #125, #35, #49 ) ;
#35 = APPROVAL ( #163, 'UNSPECIFIED' ) ;
#36 = APPROVAL_ROLE ( '' ) ;
#37 = AXIS2_PLACEMENT_3D ( 'NONE', #73, #155, #28 ) ;
#38 = PLANE ( 'NONE',  #20 ) ;
#39 = CC_DESIGN_PERSON_AND_ORGANIZATION_ASSIGNMENT ( #111, #89, ( #107 ) ) ;
#40 = FACE_BOUND ( 'NONE', #56, .T. ) ;
#41 = PERSON_AND_ORGANIZATION_ROLE ( 'design_supplier' ) ;
#42 = AXIS2_PLACEMENT_3D ( 'NONE', #62, #50, #33 ) ;
#43 = ADVANCED_BREP_SHAPE_REPRESENTATION ( '674', ( #65, #42 ), #142 ) ;
#44 =( LENGTH_UNIT ( ) NAMED_UNIT ( * ) SI_UNIT ( .MILLI., .METRE. ) );
#45 = DIRECTION ( 'NONE',  ( -3.491481338843133355E-15, 1.224646799147353207E-16, -1.000000000000000000 ) ) ;
#46 = ORGANIZATION ( 'UNSPECIFIED', 'UNSPECIFIED', '' ) ;
#47 = DIRECTION ( 'NONE',  ( 4.275831445896958607E-31, 1.000000000000000000, 1.224646799147353207E-16 ) ) ;
#48 = FACE_OUTER_BOUND ( 'NONE', #110, .T. ) ;
#49 = APPROVAL_ROLE ( '' ) ;
#50 = DIRECTION ( 'NONE',  ( 0.0000000000000000000, 0.0000000000000000000, 1.000000000000000000 ) ) ;
#51 = CALENDAR_DATE ( 2021, 6, 12 ) ;
#52 = PERSON_AND_ORGANIZATION_ROLE ( 'creator' ) ;
#53 = CALENDAR_DATE ( 2021, 6, 12 ) ;
#54 = EDGE_LOOP ( 'NONE', ( #7 ) ) ;
#55 = CIRCLE ( 'NONE', #37, 8.000000000000000000 ) ;
#56 = EDGE_LOOP ( 'NONE', ( #113 ) ) ;
#57 = CYLINDRICAL_SURFACE ( 'NONE', #86, 31.50000000000000000 ) ;
#58 = PRODUCT ( '674', '674', '', ( #121 ) ) ;
#59 = ORIENTED_EDGE ( 'NONE', *, *, #18, .T. ) ;
#60 = PERSON ( 'UNSPECIFIED', 'UNSPECIFIED', 'UNSPECIFIED', ('UNSPECIFIED'), ('UNSPECIFIED'), ('UNSPECIFIED') ) ;
#61 = PERSON_AND_ORGANIZATION ( #60, #46 ) ;
#62 = CARTESIAN_POINT ( 'NONE',  ( 0.0000000000000000000, 0.0000000000000000000, 0.0000000000000000000 ) ) ;
#63 = FACE_OUTER_BOUND ( 'NONE', #109, .T. ) ;
#64 = CARTESIAN_POINT ( 'NONE',  ( 1.047444401652940007E-14, 31.50000000000000000, 3.000000000000000000 ) ) ;
#65 = MANIFOLD_SOLID_BREP ( 'Corps-Déplacer/Copier1', #126 ) ;
#66 = CIRCLE ( 'NONE', #24, 8.000000000000000000 ) ;
#67 = AXIS2_PLACEMENT_3D ( 'NONE', #14, #31, #115 ) ;
#68 = DIRECTION ( 'NONE',  ( -3.491481338843133355E-15, 1.224646799147353207E-16, -1.000000000000000000 ) ) ;
#69 = APPLICATION_CONTEXT ( 'configuration controlled 3d designs of mechanical parts and assemblies' ) ;
#70 = PRODUCT_DEFINITION_FORMATION_WITH_SPECIFIED_SOURCE ( 'ANY', '', #58, .NOT_KNOWN. ) ;
#71 = EDGE_LOOP ( 'NONE', ( #85 ) ) ;
#72 = DATE_AND_TIME ( #51, #112 ) ;
#73 = CARTESIAN_POINT ( 'NONE',  ( 1.047444401652939691E-14, -3.673940397442058882E-16, 2.999999999999999112 ) ) ;
#74 = CC_DESIGN_APPROVAL ( #35, ( #70 ) ) ;
#75 = APPROVAL_DATE_TIME ( #91, #96 ) ;
#76 = DESIGN_CONTEXT ( 'detailed design', #19, 'design' ) ;
#77 = VERTEX_POINT ( 'NONE', #13 ) ;
#78 = VERTEX_POINT ( 'NONE', #3 ) ;
#79 = CYLINDRICAL_SURFACE ( 'NONE', #67, 8.000000000000000000 ) ;
#80 = COORDINATED_UNIVERSAL_TIME_OFFSET ( 1, 0, .AHEAD. ) ;
#81 = ADVANCED_FACE ( 'NONE', ( #101, #165 ), #57, .T. ) ;
#82 = DATE_AND_TIME ( #141, #90 ) ;
#83 = APPROVAL_STATUS ( 'not_yet_approved' ) ;
#84 = DIRECTION ( 'NONE',  ( -3.491481338843133355E-15, 1.224646799147353207E-16, -1.000000000000000000 ) ) ;
#85 = ORIENTED_EDGE ( 'NONE', *, *, #117, .T. ) ;
#86 = AXIS2_PLACEMENT_3D ( 'NONE', #93, #45, #161 ) ;
#87 = ORIENTED_EDGE ( 'NONE', *, *, #18, .F. ) ;
#88 = FACE_OUTER_BOUND ( 'NONE', #71, .T. ) ;
#89 = PERSON_AND_ORGANIZATION_ROLE ( 'classification_officer' ) ;
#90 = LOCAL_TIME ( 14, 0, 14.00000000000000000, #98 ) ;
#91 = DATE_AND_TIME ( #29, #151 ) ;
#92 = DIRECTION ( 'NONE',  ( -4.275831445896958607E-31, -1.000000000000000000, -1.224646799147353207E-16 ) ) ;
#93 = CARTESIAN_POINT ( 'NONE',  ( 0.0000000000000000000, 0.0000000000000000000, 0.0000000000000000000 ) ) ;
#94 = DIRECTION ( 'NONE',  ( 4.275831445896958607E-31, 1.000000000000000000, 1.224646799147353207E-16 ) ) ;
#95 = DATE_AND_TIME ( #139, #99 ) ;
#96 = APPROVAL ( #156, 'UNSPECIFIED' ) ;
#97 = CIRCLE ( 'NONE', #147, 31.50000000000000000 ) ;
#98 = COORDINATED_UNIVERSAL_TIME_OFFSET ( 1, 0, .AHEAD. ) ;
#99 = LOCAL_TIME ( 14, 0, 14.00000000000000000, #80 ) ;
#100 = COORDINATED_UNIVERSAL_TIME_OFFSET ( 1, 0, .AHEAD. ) ;
#101 = FACE_OUTER_BOUND ( 'NONE', #54, .T. ) ;
#102 = EDGE_LOOP ( 'NONE', ( #145 ) ) ;
#103 = APPROVAL_ROLE ( '' ) ;
#104 = VERTEX_POINT ( 'NONE', #64 ) ;
#105 =( NAMED_UNIT ( * ) PLANE_ANGLE_UNIT ( ) SI_UNIT ( $, .RADIAN. ) );
#106 = CC_DESIGN_DATE_AND_TIME_ASSIGNMENT ( #82, #150, ( #107 ) ) ;
#107 = SECURITY_CLASSIFICATION ( '', '', #30 ) ;
#108 = PERSON_AND_ORGANIZATION ( #60, #46 ) ;
#109 = EDGE_LOOP ( 'NONE', ( #87 ) ) ;
#110 = EDGE_LOOP ( 'NONE', ( #27 ) ) ;
#111 = PERSON_AND_ORGANIZATION ( #60, #46 ) ;
#112 = LOCAL_TIME ( 14, 0, 14.00000000000000000, #100 ) ;
#113 = ORIENTED_EDGE ( 'NONE', *, *, #132, .F. ) ;
#114 = PERSON_AND_ORGANIZATION ( #60, #46 ) ;
#115 = DIRECTION ( 'NONE',  ( 4.275831445896958607E-31, 1.000000000000000000, 1.224646799147353207E-16 ) ) ;
#116 = DIRECTION ( 'NONE',  ( -3.491481338843133355E-15, 1.224646799147353207E-16, -1.000000000000000000 ) ) ;
#117 = EDGE_CURVE ( 'NONE', #77, #77, #130, .T. ) ;
#118 = CARTESIAN_POINT ( 'NONE',  ( 6.842277657836020854E-46, 8.000000000000000000, 0.0000000000000000000 ) ) ;
#119 = AXIS2_PLACEMENT_3D ( 'NONE', #148, #116, #94 ) ;
#120 = DATE_AND_TIME ( #53, #2 ) ;
#121 = MECHANICAL_CONTEXT ( 'NONE', #69, 'mechanical' ) ;
#122 = ADVANCED_FACE ( 'NONE', ( #135, #48 ), #12, .T. ) ;
#123 = CC_DESIGN_DATE_AND_TIME_ASSIGNMENT ( #95, #4, ( #15 ) ) ;
#124 = VERTEX_POINT ( 'NONE', #118 ) ;
#125 = PERSON_AND_ORGANIZATION ( #60, #46 ) ;
#126 = CLOSED_SHELL ( 'NONE', ( #32, #81, #122, #143 ) ) ;
#127 = EDGE_LOOP ( 'NONE', ( #59 ) ) ;
#128 = CARTESIAN_POINT ( 'NONE',  ( 1.047444401652938587E-14, -3.673940397442054938E-16, 2.999999999999996003 ) ) ;
#129 = CARTESIAN_POINT ( 'NONE',  ( 1.047444401652939533E-14, 8.000000000000000000, 2.999999999999998668 ) ) ;
#130 = CIRCLE ( 'NONE', #119, 31.50000000000000000 ) ;
#131 = CARTESIAN_POINT ( 'NONE',  ( -3.420665156717566185E-30, 1.199807826129486086E-31, -9.797174393178825657E-16 ) ) ;
#132 = EDGE_CURVE ( 'NONE', #124, #124, #66, .T. ) ;
#133 = UNCERTAINTY_MEASURE_WITH_UNIT (LENGTH_MEASURE( 1.000000000000000082E-05 ), #44, 'distance_accuracy_value', 'NONE');
#134 = PRODUCT_RELATED_PRODUCT_CATEGORY ( 'detail', '', ( #58 ) ) ;
#135 = FACE_BOUND ( 'NONE', #127, .T. ) ;
#136 = APPROVAL_DATE_TIME ( #72, #22 ) ;
#137 = DIRECTION ( 'NONE',  ( 3.491481338843133355E-15, -1.224646799147353207E-16, 1.000000000000000000 ) ) ;
#138 = SHAPE_DEFINITION_REPRESENTATION ( #25, #43 ) ;
#139 = CALENDAR_DATE ( 2021, 6, 12 ) ;
#140 = COORDINATED_UNIVERSAL_TIME_OFFSET ( 1, 0, .AHEAD. ) ;
#141 = CALENDAR_DATE ( 2021, 6, 12 ) ;
#142 =( GEOMETRIC_REPRESENTATION_CONTEXT ( 3 ) GLOBAL_UNCERTAINTY_ASSIGNED_CONTEXT ( ( #133 ) ) GLOBAL_UNIT_ASSIGNED_CONTEXT ( ( #44, #105, #16 ) ) REPRESENTATION_CONTEXT ( 'NONE', 'WORKASPACE' ) );
#143 = ADVANCED_FACE ( 'NONE', ( #160, #63 ), #79, .F. ) ;
#144 = CARTESIAN_POINT ( 'NONE',  ( -5.024101948928926757E-30, 8.000000000000000000, -1.438959988998140160E-15 ) ) ;
#145 = ORIENTED_EDGE ( 'NONE', *, *, #132, .T. ) ;
#146 = COORDINATED_UNIVERSAL_TIME_OFFSET ( 1, 0, .AHEAD. ) ;
#147 = AXIS2_PLACEMENT_3D ( 'NONE', #128, #68, #11 ) ;
#148 = CARTESIAN_POINT ( 'NONE',  ( -1.346886905457541760E-29, 4.724243315384851574E-31, -3.857637417314162689E-15 ) ) ;
#149 = CC_DESIGN_APPROVAL ( #96, ( #15 ) ) ;
#150 = DATE_TIME_ROLE ( 'classification_date' ) ;
#151 = LOCAL_TIME ( 14, 0, 14.00000000000000000, #146 ) ;
#152 = EDGE_LOOP ( 'NONE', ( #154 ) ) ;
#153 = CC_DESIGN_PERSON_AND_ORGANIZATION_ASSIGNMENT ( #164, #41, ( #70 ) ) ;
#154 = ORIENTED_EDGE ( 'NONE', *, *, #117, .F. ) ;
#155 = DIRECTION ( 'NONE',  ( -3.491481338843133355E-15, 1.224646799147353207E-16, -1.000000000000000000 ) ) ;
#156 = APPROVAL_STATUS ( 'not_yet_approved' ) ;
#157 = CC_DESIGN_PERSON_AND_ORGANIZATION_ASSIGNMENT ( #169, #17, ( #15 ) ) ;
#158 = PERSON_AND_ORGANIZATION_ROLE ( 'design_owner' ) ;
#159 = APPROVAL_PERSON_ORGANIZATION ( #23, #22, #36 ) ;
#160 = FACE_OUTER_BOUND ( 'NONE', #102, .T. ) ;
#161 = DIRECTION ( 'NONE',  ( 4.275831445896958607E-31, 1.000000000000000000, 1.224646799147353207E-16 ) ) ;
#162 = APPLICATION_PROTOCOL_DEFINITION ( 'international standard', 'config_control_design', 1994, #69 ) ;
#163 = APPROVAL_STATUS ( 'not_yet_approved' ) ;
#164 = PERSON_AND_ORGANIZATION ( #60, #46 ) ;
#165 = FACE_OUTER_BOUND ( 'NONE', #152, .T. ) ;
#166 = APPROVAL_PERSON_ORGANIZATION ( #61, #96, #103 ) ;
#167 = CC_DESIGN_PERSON_AND_ORGANIZATION_ASSIGNMENT ( #114, #158, ( #58 ) ) ;
#168 = APPLICATION_PROTOCOL_DEFINITION ( 'international standard', 'config_control_design', 1994, #19 ) ;
#169 = PERSON_AND_ORGANIZATION ( #60, #46 ) ;
ENDSEC;
END-ISO-10303-21;
