ISO-10303-21;
HEADER;
FILE_DESCRIPTION (( 'STEP AP203' ),
    '1' );
FILE_NAME ('67308.step',
    '2021-11-29T14:49:31',
    ( '' ),
    ( '' ),
    'SwSTEP 2.0',
    'SolidWorks 2019',
    '' );
FILE_SCHEMA (( 'CONFIG_CONTROL_DESIGN' ));
ENDSEC;

DATA;
#1 = AXIS2_PLACEMENT_3D ( 'NONE', #88, #275, #281 ) ;
#2 = COORDINATED_UNIVERSAL_TIME_OFFSET ( 1, 0, .AHEAD. ) ;
#3 = DIRECTION ( 'NONE',  ( 0.0000000000000000000, 1.000000000000000000, 0.0000000000000000000 ) ) ;
#4 = COORDINATED_UNIVERSAL_TIME_OFFSET ( 1, 0, .AHEAD. ) ;
#5 = ORIENTED_EDGE ( 'NONE', *, *, #19, .T. ) ;
#6 = CALENDAR_DATE ( 2021, 29, 11 ) ;
#7 = EDGE_LOOP ( 'NONE', ( #10 ) ) ;
#8 = LOCAL_TIME ( 15, 49, 31.00000000000000000, #188 ) ;
#9 = APPROVAL_STATUS ( 'not_yet_approved' ) ;
#10 = ORIENTED_EDGE ( 'NONE', *, *, #85, .T. ) ;
#11 = APPROVAL_DATE_TIME ( #167, #99 ) ;
#12 = PRODUCT ( '67308', '67308', '', ( #48 ) ) ;
#13 = EDGE_LOOP ( 'NONE', ( #128 ) ) ;
#14 = DIRECTION ( 'NONE',  ( -3.491481338843133355E-15, 1.224646799147352961E-16, -1.000000000000000000 ) ) ;
#15 = AXIS2_PLACEMENT_3D ( 'NONE', #199, #136, #294 ) ;
#16 = AXIS2_PLACEMENT_3D ( 'NONE', #113, #277, #300 ) ;
#17 = DIRECTION ( 'NONE',  ( -3.491481338843133355E-15, 1.224646799147352961E-16, -1.000000000000000000 ) ) ;
#18 = CARTESIAN_POINT ( 'NONE',  ( 6.590036799080176703E-14, 1.499999999999995559, 18.87461555576785344 ) ) ;
#19 = EDGE_CURVE ( 'NONE', #257, #257, #61, .T. ) ;
#20 = FACE_OUTER_BOUND ( 'NONE', #291, .T. ) ;
#21 = LOCAL_TIME ( 15, 49, 31.00000000000000000, #4 ) ;
#22 = APPLICATION_CONTEXT ( 'configuration controlled 3d designs of mechanical parts and assemblies' ) ;
#23 = DIRECTION ( 'NONE',  ( 4.275831445896957731E-31, 1.000000000000000000, 1.224646799147352961E-16 ) ) ;
#24 = CARTESIAN_POINT ( 'NONE',  ( 4.660183614865709749E-14, 0.5253844939755814014, 13.34729635533384773 ) ) ;
#25 = DIRECTION ( 'NONE',  ( 3.491481338843133355E-15, -1.224646799147352961E-16, 1.000000000000000000 ) ) ;
#26 = CARTESIAN_POINT ( 'NONE',  ( 8.728703347107831416E-16, -3.061616997868381785E-17, 0.2499999999999999445 ) ) ;
#27 = FACE_OUTER_BOUND ( 'NONE', #264, .T. ) ;
#28 = APPLICATION_PROTOCOL_DEFINITION ( 'international standard', 'config_control_design', 1994, #38 ) ;
#29 = AXIS2_PLACEMENT_3D ( 'NONE', #73, #284, #279 ) ;
#30 = CARTESIAN_POINT ( 'NONE',  ( 0.0000000000000000000, 0.0000000000000000000, 0.0000000000000000000 ) ) ;
#31 = EDGE_LOOP ( 'NONE', ( #107 ) ) ;
#32 = PERSON_AND_ORGANIZATION ( #197, #215 ) ;
#33 = CARTESIAN_POINT ( 'NONE',  ( 1.316288464743861212E-13, -4.616918432785520292E-15, 37.69999999999999574 ) ) ;
#34 = FACE_OUTER_BOUND ( 'NONE', #106, .T. ) ;
#35 = ADVANCED_FACE ( 'NONE', ( #212, #34 ), #195, .T. ) ;
#36 = ORIENTED_EDGE ( 'NONE', *, *, #224, .T. ) ;
#37 = AXIS2_PLACEMENT_3D ( 'NONE', #145, #58, #122 ) ;
#38 = APPLICATION_CONTEXT ( 'configuration controlled 3d designs of mechanical parts and assemblies' ) ;
#39 = CARTESIAN_POINT ( 'NONE',  ( 1.316288464743861212E-13, 1.499999999999998668, 37.69999999999999574 ) ) ;
#40 = DIRECTION ( 'NONE',  ( 0.0000000000000000000, -1.000000000000000000, 0.0000000000000000000 ) ) ;
#41 = VERTEX_POINT ( 'NONE', #259 ) ;
#42 = FACE_OUTER_BOUND ( 'NONE', #192, .T. ) ;
#43 = VERTEX_POINT ( 'NONE', #135 ) ;
#44 = FACE_OUTER_BOUND ( 'NONE', #13, .T. ) ;
#45 = PLANE ( 'NONE',  #153 ) ;
#46 = CIRCLE ( 'NONE', #216, 1.500000000000003331 ) ;
#47 = DIRECTION ( 'NONE',  ( 0.0000000000000000000, 1.000000000000000000, 0.0000000000000000000 ) ) ;
#48 = MECHANICAL_CONTEXT ( 'NONE', #22, 'mechanical' ) ;
#49 = MANIFOLD_SOLID_BREP ( 'Corps-Déplacer/Copier1[2]', #222 ) ;
#50 = EDGE_LOOP ( 'NONE', ( #238 ) ) ;
#51 = DIRECTION ( 'NONE',  ( 0.0000000000000000000, 0.0000000000000000000, 1.000000000000000000 ) ) ;
#52 = CC_DESIGN_APPROVAL ( #90, ( #59 ) ) ;
#53 = ORIENTED_EDGE ( 'NONE', *, *, #176, .T. ) ;
#54 = CONICAL_SURFACE ( 'NONE', #112, 1.200000000000003286, 0.7853981633974453924 ) ;
#55 = APPROVAL_DATE_TIME ( #283, #90 ) ;
#56 = EDGE_CURVE ( 'NONE', #157, #157, #46, .T. ) ;
#57 = CALENDAR_DATE ( 2021, 29, 11 ) ;
#58 = DIRECTION ( 'NONE',  ( -3.491481338843133355E-15, 1.224646799147352961E-16, -1.000000000000000000 ) ) ;
#59 = PRODUCT_DEFINITION_FORMATION_WITH_SPECIFIED_SOURCE ( 'ANY', '', #12, .NOT_KNOWN. ) ;
#60 = ADVANCED_FACE ( 'NONE', ( #287, #80 ), #125, .T. ) ;
#61 = CIRCLE ( 'NONE', #37, 0.4949999999999992184 ) ;
#62 = ORIENTED_EDGE ( 'NONE', *, *, #266, .F. ) ;
#63 = AXIS2_PLACEMENT_3D ( 'NONE', #30, #51, #124 ) ;
#64 =( NAMED_UNIT ( * ) PLANE_ANGLE_UNIT ( ) SI_UNIT ( $, .RADIAN. ) );
#65 = CARTESIAN_POINT ( 'NONE',  ( 2.163527055179379803E-14, -7.588631374074676968E-16, 6.196587766659072294 ) ) ;
#66 = CC_DESIGN_DATE_AND_TIME_ASSIGNMENT ( #243, #214, ( #230 ) ) ;
#67 = CARTESIAN_POINT ( 'NONE',  ( 4.660183614865709749E-14, -1.634572375883072611E-15, 13.34729635533384773 ) ) ;
#68 = LOCAL_TIME ( 15, 49, 31.00000000000000000, #104 ) ;
#69 = CARTESIAN_POINT ( 'NONE',  ( 0.0000000000000000000, 0.0000000000000000000, 0.0000000000000000000 ) ) ;
#70 = FACE_OUTER_BOUND ( 'NONE', #208, .T. ) ;
#71 = DIRECTION ( 'NONE',  ( -3.491481338843133355E-15, 1.224646799147352961E-16, -1.000000000000000000 ) ) ;
#72 = CARTESIAN_POINT ( 'NONE',  ( -2.931048238945366891E-31, 1.028073329230587605E-32, -8.394855806150577067E-17 ) ) ;
#73 = CARTESIAN_POINT ( 'NONE',  ( 0.0000000000000000000, 0.0000000000000000000, 0.0000000000000000000 ) ) ;
#74 = ORIENTED_EDGE ( 'NONE', *, *, #165, .F. ) ;
#75 = CALENDAR_DATE ( 2021, 29, 11 ) ;
#76 = EDGE_LOOP ( 'NONE', ( #5 ) ) ;
#77 = CALENDAR_DATE ( 2021, 29, 11 ) ;
#78 = CC_DESIGN_PERSON_AND_ORGANIZATION_ASSIGNMENT ( #237, #171, ( #12 ) ) ;
#79 = APPROVAL_ROLE ( '' ) ;
#80 = FACE_BOUND ( 'NONE', #76, .T. ) ;
#81 = EDGE_LOOP ( 'NONE', ( #248 ) ) ;
#82 = TOROIDAL_SURFACE ( 'NONE', #1, 2.495000000000000107, 1.999999999999999112 ) ;
#83 = CC_DESIGN_SECURITY_CLASSIFICATION ( #230, ( #59 ) ) ;
#84 = CIRCLE ( 'NONE', #16, 1.499999999999997780 ) ;
#85 = EDGE_CURVE ( 'NONE', #41, #41, #97, .T. ) ;
#86 = DIRECTION ( 'NONE',  ( 4.275831445896957731E-31, 1.000000000000000000, 1.224646799147353207E-16 ) ) ;
#87 = VERTEX_POINT ( 'NONE', #181 ) ;
#88 = CARTESIAN_POINT ( 'NONE',  ( 4.538925740496073362E-14, -1.734723475976807094E-15, 13.00000000000000000 ) ) ;
#89 = FACE_OUTER_BOUND ( 'NONE', #246, .T. ) ;
#90 = APPROVAL ( #290, 'UNSPECIFIED' ) ;
#91 = ADVANCED_BREP_SHAPE_REPRESENTATION ( '67308', ( #152, #49, #63 ), #194 ) ;
#92 = FACE_OUTER_BOUND ( 'NONE', #210, .T. ) ;
#93 = VERTEX_POINT ( 'NONE', #278 ) ;
#94 = FACE_OUTER_BOUND ( 'NONE', #151, .T. ) ;
#95 = VERTEX_POINT ( 'NONE', #261 ) ;
#96 = APPROVAL_PERSON_ORGANIZATION ( #121, #99, #286 ) ;
#97 = CIRCLE ( 'NONE', #254, 1.200000000000003286 ) ;
#98 = DIRECTION ( 'NONE',  ( -3.491481338843133355E-15, 1.224646799147352961E-16, -1.000000000000000000 ) ) ;
#99 = APPROVAL ( #9, 'UNSPECIFIED' ) ;
#100 = DATE_AND_TIME ( #6, #21 ) ;
#101 = DIRECTION ( 'NONE',  ( -3.165045101704581272E-31, -1.000000000000000000, -8.908809962904728645E-17 ) ) ;
#102 = APPROVAL_DATE_TIME ( #100, #289 ) ;
#103 = CIRCLE ( 'NONE', #245, 0.5253844939755830667 ) ;
#104 = COORDINATED_UNIVERSAL_TIME_OFFSET ( 1, 0, .AHEAD. ) ;
#105 = ORIENTED_EDGE ( 'NONE', *, *, #224, .F. ) ;
#106 = EDGE_LOOP ( 'NONE', ( #213 ) ) ;
#107 = ORIENTED_EDGE ( 'NONE', *, *, #302, .F. ) ;
#108 = ADVANCED_FACE ( 'NONE', ( #92 ), #184, .T. ) ;
#109 = CIRCLE ( 'NONE', #276, 0.4641624327025949959 ) ;
#110 = DIRECTION ( 'NONE',  ( 0.0000000000000000000, 1.000000000000000000, 0.0000000000000000000 ) ) ;
#111 = DIRECTION ( 'NONE',  ( -3.491481338843133355E-15, 1.224646799147352961E-16, -1.000000000000000000 ) ) ;
#112 = AXIS2_PLACEMENT_3D ( 'NONE', #159, #114, #178 ) ;
#113 = CARTESIAN_POINT ( 'NONE',  ( 6.590036799080176703E-14, -2.311473752550793751E-15, 18.87461555576785344 ) ) ;
#114 = DIRECTION ( 'NONE',  ( -3.491481338843133355E-15, 1.224646799147352961E-16, -1.000000000000000000 ) ) ;
#115 = CARTESIAN_POINT ( 'NONE',  ( 6.590036799080176703E-14, -2.311473752550793751E-15, 18.87461555576785344 ) ) ;
#116 = PERSON_AND_ORGANIZATION ( #197, #215 ) ;
#117 = CC_DESIGN_APPROVAL ( #289, ( #274 ) ) ;
#118 = ADVANCED_FACE ( 'NONE', ( #70, #202 ), #234, .T. ) ;
#119 = ORIENTED_EDGE ( 'NONE', *, *, #302, .T. ) ;
#120 = AXIS2_PLACEMENT_3D ( 'NONE', #26, #228, #299 ) ;
#121 = PERSON_AND_ORGANIZATION ( #197, #215 ) ;
#122 = DIRECTION ( 'NONE',  ( 0.0000000000000000000, 1.000000000000000000, 0.0000000000000000000 ) ) ;
#123 = CC_DESIGN_PERSON_AND_ORGANIZATION_ASSIGNMENT ( #267, #147, ( #230 ) ) ;
#124 = DIRECTION ( 'NONE',  ( 1.000000000000000000, 0.0000000000000000000, 0.0000000000000000000 ) ) ;
#125 = CONICAL_SURFACE ( 'NONE', #223, 0.4949999999999992184, 0.5235987755982924874 ) ;
#126 = CIRCLE ( 'NONE', #251, 0.6085000000000001519 ) ;
#127 = APPROVAL_ROLE ( '' ) ;
#128 = ORIENTED_EDGE ( 'NONE', *, *, #85, .F. ) ;
#129 = CARTESIAN_POINT ( 'NONE',  ( 8.728703347107831416E-16, -3.061616997868381785E-17, 0.2499999999999999445 ) ) ;
#130 = ORIENTED_EDGE ( 'NONE', *, *, #177, .F. ) ;
#131 = UNCERTAINTY_MEASURE_WITH_UNIT (LENGTH_MEASURE( 1.000000000000000082E-05 ), #185, 'distance_accuracy_value', 'NONE');
#132 = FACE_BOUND ( 'NONE', #7, .T. ) ;
#133 = DIRECTION ( 'NONE',  ( 0.0000000000000000000, 1.000000000000000000, 0.0000000000000000000 ) ) ;
#134 = FACE_BOUND ( 'NONE', #172, .T. ) ;
#135 = CARTESIAN_POINT ( 'NONE',  ( 8.728703347107833388E-16, 0.6084999999999993747, 0.2500000000000000000 ) ) ;
#136 = DIRECTION ( 'NONE',  ( 3.491481338843133355E-15, -1.224646799147352961E-16, 1.000000000000000000 ) ) ;
#137 = AXIS2_PLACEMENT_3D ( 'NONE', #301, #183, #155 ) ;
#138 = CC_DESIGN_APPROVAL ( #99, ( #230 ) ) ;
#139 = CLOSED_SHELL ( 'NONE', ( #296, #60, #231, #244, #240, #118, #158, #219 ) ) ;
#140 = CARTESIAN_POINT ( 'NONE',  ( 1.326762908760390423E-13, 8.998558695971099120E-33, 38.00000000000000000 ) ) ;
#141 = CARTESIAN_POINT ( 'NONE',  ( 0.0000000000000000000, 0.0000000000000000000, 0.0000000000000000000 ) ) ;
#142 = PRODUCT_RELATED_PRODUCT_CATEGORY ( 'detail', '', ( #12 ) ) ;
#143 = APPLICATION_PROTOCOL_DEFINITION ( 'international standard', 'config_control_design', 1994, #22 ) ;
#144 = CIRCLE ( 'NONE', #217, 0.6085000000000001519 ) ;
#145 = CARTESIAN_POINT ( 'NONE',  ( 2.163527055179379803E-14, -7.588631374074676968E-16, 6.196587766659072294 ) ) ;
#146 = PERSON_AND_ORGANIZATION_ROLE ( 'creator' ) ;
#147 = PERSON_AND_ORGANIZATION_ROLE ( 'classification_officer' ) ;
#148 = PERSON_AND_ORGANIZATION ( #197, #215 ) ;
#149 = ORIENTED_EDGE ( 'NONE', *, *, #271, .T. ) ;
#150 = AXIS2_PLACEMENT_3D ( 'NONE', #256, #262, #47 ) ;
#151 = EDGE_LOOP ( 'NONE', ( #62 ) ) ;
#152 = MANIFOLD_SOLID_BREP ( 'Corps-Déplacer/Copier1[1]', #139 ) ;
#153 = AXIS2_PLACEMENT_3D ( 'NONE', #140, #282, #23 ) ;
#154 = DIRECTION ( 'NONE',  ( 3.491481338843133355E-15, -1.224646799147352961E-16, 1.000000000000000000 ) ) ;
#155 = DIRECTION ( 'NONE',  ( -4.275831445896957731E-31, -1.000000000000000000, -1.224646799147352961E-16 ) ) ;
#156 = PLANE ( 'NONE',  #273 ) ;
#157 = VERTEX_POINT ( 'NONE', #39 ) ;
#158 = ADVANCED_FACE ( 'NONE', ( #303, #132 ), #54, .T. ) ;
#159 = CARTESIAN_POINT ( 'NONE',  ( 1.326762908760390423E-13, -4.653657836759941152E-15, 38.00000000000000000 ) ) ;
#160 = DIRECTION ( 'NONE',  ( 4.275831445896956855E-31, 1.000000000000000000, 1.224646799147352961E-16 ) ) ;
#161 = DIRECTION ( 'NONE',  ( 4.275831445896957731E-31, 1.000000000000000000, 1.224646799147352961E-16 ) ) ;
#162 = VERTEX_POINT ( 'NONE', #295 ) ;
#163 = CIRCLE ( 'NONE', #150, 0.4950000000000001066 ) ;
#164 = CARTESIAN_POINT ( 'NONE',  ( 2.094888803305880013E-14, -7.347880794884118750E-16, 6.000000000000000000 ) ) ;
#165 = EDGE_CURVE ( 'NONE', #162, #162, #144, .T. ) ;
#166 = ORIENTED_EDGE ( 'NONE', *, *, #56, .F. ) ;
#167 = DATE_AND_TIME ( #75, #68 ) ;
#168 = PRODUCT_DEFINITION_SHAPE ( 'NONE', 'NONE',  #274 ) ;
#169 = EDGE_LOOP ( 'NONE', ( #105 ) ) ;
#170 = EDGE_LOOP ( 'NONE', ( #36 ) ) ;
#171 = PERSON_AND_ORGANIZATION_ROLE ( 'design_owner' ) ;
#172 = EDGE_LOOP ( 'NONE', ( #221 ) ) ;
#173 = SECURITY_CLASSIFICATION_LEVEL ( 'unclassified' ) ;
#174 = EDGE_LOOP ( 'NONE', ( #74 ) ) ;
#175 = AXIS2_PLACEMENT_3D ( 'NONE', #115, #154, #40 ) ;
#176 = EDGE_CURVE ( 'NONE', #226, #226, #84, .T. ) ;
#177 = EDGE_CURVE ( 'NONE', #87, #87, #126, .T. ) ;
#178 = DIRECTION ( 'NONE',  ( 0.0000000000000000000, 1.000000000000000000, 0.0000000000000000000 ) ) ;
#179 = APPROVAL_PERSON_ORGANIZATION ( #148, #289, #127 ) ;
#180 = ADVANCED_FACE ( 'NONE', ( #94, #187 ), #258, .T. ) ;
#181 = CARTESIAN_POINT ( 'NONE',  ( 2.094888803305880013E-14, 0.6084999999999993747, 6.000000000000000000 ) ) ;
#182 = CYLINDRICAL_SURFACE ( 'NONE', #29, 0.4949999999999996625 ) ;
#183 = DIRECTION ( 'NONE',  ( 3.491481338843133355E-15, -1.224646799147352961E-16, 1.000000000000000000 ) ) ;
#184 = PLANE ( 'NONE',  #15 ) ;
#185 =( LENGTH_UNIT ( ) NAMED_UNIT ( * ) SI_UNIT ( .MILLI., .METRE. ) );
#186 = CARTESIAN_POINT ( 'NONE',  ( -1.465524119472683445E-31, 5.140366646152938025E-33, -4.197427903075288533E-17 ) ) ;
#187 = FACE_OUTER_BOUND ( 'NONE', #50, .T. ) ;
#188 = COORDINATED_UNIVERSAL_TIME_OFFSET ( 1, 0, .AHEAD. ) ;
#189 = DATE_AND_TIME ( #57, #8 ) ;
#190 = LOCAL_TIME ( 15, 49, 31.00000000000000000, #2 ) ;
#191 = EDGE_LOOP ( 'NONE', ( #119 ) ) ;
#192 = EDGE_LOOP ( 'NONE', ( #269 ) ) ;
#193 = CC_DESIGN_PERSON_AND_ORGANIZATION_ASSIGNMENT ( #32, #263, ( #59 ) ) ;
#194 =( GEOMETRIC_REPRESENTATION_CONTEXT ( 3 ) GLOBAL_UNCERTAINTY_ASSIGNED_CONTEXT ( ( #131 ) ) GLOBAL_UNIT_ASSIGNED_CONTEXT ( ( #185, #64, #297 ) ) REPRESENTATION_CONTEXT ( 'NONE', 'WORKASPACE' ) );
#195 = CONICAL_SURFACE ( 'NONE', #250, 0.6084999999999993747, 0.5235987755982924874 ) ;
#196 = DESIGN_CONTEXT ( 'detailed design', #38, 'design' ) ;
#197 = PERSON ( 'UNSPECIFIED', 'UNSPECIFIED', 'UNSPECIFIED', ('UNSPECIFIED'), ('UNSPECIFIED'), ('UNSPECIFIED') ) ;
#198 = ADVANCED_FACE ( 'NONE', ( #260 ), #156, .F. ) ;
#199 = CARTESIAN_POINT ( 'NONE',  ( 2.094888803305880013E-14, 4.563019138748690058E-33, 6.000000000000000000 ) ) ;
#200 = DIRECTION ( 'NONE',  ( -3.491481338843133355E-15, 1.224646799147352961E-16, -1.000000000000000000 ) ) ;
#201 = PLANE ( 'NONE',  #137 ) ;
#202 = FACE_OUTER_BOUND ( 'NONE', #81, .T. ) ;
#203 = CARTESIAN_POINT ( 'NONE',  ( 2.163527055179379803E-14, 0.4949999999999984968, 6.196587766659072294 ) ) ;
#204 = DIRECTION ( 'NONE',  ( 0.0000000000000000000, 1.000000000000000000, 0.0000000000000000000 ) ) ;
#205 = CARTESIAN_POINT ( 'NONE',  ( 1.326762908760390423E-13, -4.653657836759941152E-15, 38.00000000000000000 ) ) ;
#206 = COORDINATED_UNIVERSAL_TIME_OFFSET ( 1, 0, .AHEAD. ) ;
#207 = CONICAL_SURFACE ( 'NONE', #175, 1.499999999999997780, 0.1745329251994259256 ) ;
#208 = EDGE_LOOP ( 'NONE', ( #270 ) ) ;
#209 = PERSON_AND_ORGANIZATION_ROLE ( 'creator' ) ;
#210 = EDGE_LOOP ( 'NONE', ( #130 ) ) ;
#211 = CC_DESIGN_DATE_AND_TIME_ASSIGNMENT ( #189, #288, ( #274 ) ) ;
#212 = FACE_BOUND ( 'NONE', #31, .T. ) ;
#213 = ORIENTED_EDGE ( 'NONE', *, *, #266, .T. ) ;
#214 = DATE_TIME_ROLE ( 'classification_date' ) ;
#215 = ORGANIZATION ( 'UNSPECIFIED', 'UNSPECIFIED', '' ) ;
#216 = AXIS2_PLACEMENT_3D ( 'NONE', #33, #285, #3 ) ;
#217 = AXIS2_PLACEMENT_3D ( 'NONE', #225, #98, #229 ) ;
#218 = PERSON_AND_ORGANIZATION ( #197, #215 ) ;
#219 = ADVANCED_FACE ( 'NONE', ( #44 ), #45, .F. ) ;
#220 = DIRECTION ( 'NONE',  ( 3.491481338843133355E-15, -1.224646799147352961E-16, 1.000000000000000000 ) ) ;
#221 = ORIENTED_EDGE ( 'NONE', *, *, #271, .F. ) ;
#222 = CLOSED_SHELL ( 'NONE', ( #198, #35, #180, #108 ) ) ;
#223 = AXIS2_PLACEMENT_3D ( 'NONE', #65, #14, #204 ) ;
#224 = EDGE_CURVE ( 'NONE', #93, #93, #163, .T. ) ;
#225 = CARTESIAN_POINT ( 'NONE',  ( 2.094888803305880013E-14, -7.347880794884118750E-16, 6.000000000000000000 ) ) ;
#226 = VERTEX_POINT ( 'NONE', #18 ) ;
#227 = FACE_OUTER_BOUND ( 'NONE', #169, .T. ) ;
#228 = DIRECTION ( 'NONE',  ( -3.491481338843133355E-15, 1.224646799147352961E-16, -1.000000000000000000 ) ) ;
#229 = DIRECTION ( 'NONE',  ( 0.0000000000000000000, 1.000000000000000000, 0.0000000000000000000 ) ) ;
#230 = SECURITY_CLASSIFICATION ( '', '', #173 ) ;
#231 = ADVANCED_FACE ( 'NONE', ( #42, #236 ), #182, .T. ) ;
#232 = VERTEX_POINT ( 'NONE', #24 ) ;
#233 = AXIS2_PLACEMENT_3D ( 'NONE', #69, #17, #161 ) ;
#234 = CYLINDRICAL_SURFACE ( 'NONE', #247, 1.500000000000000444 ) ;
#235 = DIRECTION ( 'NONE',  ( -3.491481338843133355E-15, 1.224646799147352961E-16, -1.000000000000000000 ) ) ;
#236 = FACE_OUTER_BOUND ( 'NONE', #170, .T. ) ;
#237 = PERSON_AND_ORGANIZATION ( #197, #215 ) ;
#238 = ORIENTED_EDGE ( 'NONE', *, *, #177, .T. ) ;
#239 = APPROVAL_STATUS ( 'not_yet_approved' ) ;
#240 = ADVANCED_FACE ( 'NONE', ( #134, #27 ), #207, .T. ) ;
#241 = ORIENTED_EDGE ( 'NONE', *, *, #165, .T. ) ;
#242 = PERSON_AND_ORGANIZATION ( #197, #215 ) ;
#243 = DATE_AND_TIME ( #268, #293 ) ;
#244 = ADVANCED_FACE ( 'NONE', ( #227, #20 ), #82, .F. ) ;
#245 = AXIS2_PLACEMENT_3D ( 'NONE', #67, #200, #133 ) ;
#246 = EDGE_LOOP ( 'NONE', ( #241 ) ) ;
#247 = AXIS2_PLACEMENT_3D ( 'NONE', #141, #280, #86 ) ;
#248 = ORIENTED_EDGE ( 'NONE', *, *, #56, .T. ) ;
#249 = CC_DESIGN_PERSON_AND_ORGANIZATION_ASSIGNMENT ( #218, #146, ( #59 ) ) ;
#250 = AXIS2_PLACEMENT_3D ( 'NONE', #129, #220, #101 ) ;
#251 = AXIS2_PLACEMENT_3D ( 'NONE', #164, #71, #298 ) ;
#252 = CC_DESIGN_PERSON_AND_ORGANIZATION_ASSIGNMENT ( #116, #209, ( #274 ) ) ;
#253 = DIRECTION ( 'NONE',  ( -4.275831445896957731E-31, -1.000000000000000000, -1.224646799147352961E-16 ) ) ;
#254 = AXIS2_PLACEMENT_3D ( 'NONE', #205, #111, #110 ) ;
#255 = CIRCLE ( 'NONE', #120, 0.6084999999999993747 ) ;
#256 = CARTESIAN_POINT ( 'NONE',  ( 4.538925740496072731E-14, -1.592040838891558504E-15, 12.99999999999999822 ) ) ;
#257 = VERTEX_POINT ( 'NONE', #203 ) ;
#258 = CYLINDRICAL_SURFACE ( 'NONE', #233, 0.6084999999999997078 ) ;
#259 = CARTESIAN_POINT ( 'NONE',  ( 1.326762908760390423E-13, 1.199999999999998845, 38.00000000000000000 ) ) ;
#260 = FACE_OUTER_BOUND ( 'NONE', #191, .T. ) ;
#261 = CARTESIAN_POINT ( 'NONE',  ( -9.463679131915806782E-32, 0.4641624327025949959, -2.710505431213761085E-17 ) ) ;
#262 = DIRECTION ( 'NONE',  ( -3.491481338843133355E-15, 1.224646799147352961E-16, -1.000000000000000000 ) ) ;
#263 = PERSON_AND_ORGANIZATION_ROLE ( 'design_supplier' ) ;
#264 = EDGE_LOOP ( 'NONE', ( #53 ) ) ;
#265 = SHAPE_DEFINITION_REPRESENTATION ( #168, #91 ) ;
#266 = EDGE_CURVE ( 'NONE', #43, #43, #255, .T. ) ;
#267 = PERSON_AND_ORGANIZATION ( #197, #215 ) ;
#268 = CALENDAR_DATE ( 2021, 29, 11 ) ;
#269 = ORIENTED_EDGE ( 'NONE', *, *, #19, .F. ) ;
#270 = ORIENTED_EDGE ( 'NONE', *, *, #176, .F. ) ;
#271 = EDGE_CURVE ( 'NONE', #232, #232, #103, .T. ) ;
#272 = APPROVAL_PERSON_ORGANIZATION ( #242, #90, #79 ) ;
#273 = AXIS2_PLACEMENT_3D ( 'NONE', #186, #25, #253 ) ;
#274 = PRODUCT_DEFINITION ( 'UNKNOWN', '', #59, #196 ) ;
#275 = DIRECTION ( 'NONE',  ( -3.491481338843133355E-15, 1.224646799147352961E-16, -1.000000000000000000 ) ) ;
#276 = AXIS2_PLACEMENT_3D ( 'NONE', #72, #235, #160 ) ;
#277 = DIRECTION ( 'NONE',  ( -3.491481338843133355E-15, 1.224646799147352961E-16, -1.000000000000000000 ) ) ;
#278 = CARTESIAN_POINT ( 'NONE',  ( 4.538925740496072731E-14, 0.4949999999999984968, 12.99999999999999822 ) ) ;
#279 = DIRECTION ( 'NONE',  ( 4.275831445896956855E-31, 1.000000000000000000, 1.224646799147352961E-16 ) ) ;
#280 = DIRECTION ( 'NONE',  ( -3.491481338843133355E-15, 1.224646799147352961E-16, -1.000000000000000000 ) ) ;
#281 = DIRECTION ( 'NONE',  ( 4.275831445896957731E-31, 1.000000000000000000, 1.224646799147352961E-16 ) ) ;
#282 = DIRECTION ( 'NONE',  ( -3.491481338843133355E-15, 1.224646799147352961E-16, -1.000000000000000000 ) ) ;
#283 = DATE_AND_TIME ( #77, #190 ) ;
#284 = DIRECTION ( 'NONE',  ( -3.491481338843133355E-15, 1.224646799147352961E-16, -1.000000000000000000 ) ) ;
#285 = DIRECTION ( 'NONE',  ( -3.491481338843133355E-15, 1.224646799147352961E-16, -1.000000000000000000 ) ) ;
#286 = APPROVAL_ROLE ( '' ) ;
#287 = FACE_OUTER_BOUND ( 'NONE', #174, .T. ) ;
#288 = DATE_TIME_ROLE ( 'creation_date' ) ;
#289 = APPROVAL ( #239, 'UNSPECIFIED' ) ;
#290 = APPROVAL_STATUS ( 'not_yet_approved' ) ;
#291 = EDGE_LOOP ( 'NONE', ( #149 ) ) ;
#292 = EDGE_LOOP ( 'NONE', ( #166 ) ) ;
#293 = LOCAL_TIME ( 15, 49, 31.00000000000000000, #206 ) ;
#294 = DIRECTION ( 'NONE',  ( -4.275831445896957731E-31, -1.000000000000000000, -1.224646799147352961E-16 ) ) ;
#295 = CARTESIAN_POINT ( 'NONE',  ( 2.094888803305880013E-14, 0.6084999999999993747, 6.000000000000000000 ) ) ;
#296 = ADVANCED_FACE ( 'NONE', ( #89 ), #201, .F. ) ;
#297 =( NAMED_UNIT ( * ) SI_UNIT ( $, .STERADIAN. ) SOLID_ANGLE_UNIT ( ) );
#298 = DIRECTION ( 'NONE',  ( 0.0000000000000000000, 1.000000000000000000, 0.0000000000000000000 ) ) ;
#299 = DIRECTION ( 'NONE',  ( 3.165045101704581272E-31, 1.000000000000000000, 8.908809962904728645E-17 ) ) ;
#300 = DIRECTION ( 'NONE',  ( 0.0000000000000000000, 1.000000000000000000, 0.0000000000000000000 ) ) ;
#301 = CARTESIAN_POINT ( 'NONE',  ( 2.094888803305880013E-14, 4.563019138748690058E-33, 6.000000000000000000 ) ) ;
#302 = EDGE_CURVE ( 'NONE', #95, #95, #109, .T. ) ;
#303 = FACE_OUTER_BOUND ( 'NONE', #292, .T. ) ;
ENDSEC;
END-ISO-10303-21;
