ISO-10303-21;
HEADER;
FILE_DESCRIPTION (( 'STEP AP203' ),
    '1' );
FILE_NAME ('67307.step',
    '2021-11-29T14:49:30',
    ( '' ),
    ( '' ),
    'SwSTEP 2.0',
    'SolidWorks 2019',
    '' );
FILE_SCHEMA (( 'CONFIG_CONTROL_DESIGN' ));
ENDSEC;

DATA;
#1 = DIRECTION ( 'NONE',  ( 0.0000000000000000000, 1.000000000000000000, 0.0000000000000000000 ) ) ;
#2 = VERTEX_POINT ( 'NONE', #91 ) ;
#3 = VERTEX_POINT ( 'NONE', #241 ) ;
#4 = AXIS2_PLACEMENT_3D ( 'NONE', #229, #135, #15 ) ;
#5 = PRODUCT ( '67307', '67307', '', ( #114 ) ) ;
#6 = DIRECTION ( 'NONE',  ( -3.491481338843133355E-15, 1.224646799147352961E-16, -1.000000000000000000 ) ) ;
#7 = DATE_TIME_ROLE ( 'creation_date' ) ;
#8 = CARTESIAN_POINT ( 'NONE',  ( 4.189777606611760026E-14, -1.469576158976823750E-15, 12.00000000000000000 ) ) ;
#9 = PERSON_AND_ORGANIZATION ( #140, #16 ) ;
#10 = EDGE_LOOP ( 'NONE', ( #59 ) ) ;
#11 = CC_DESIGN_PERSON_AND_ORGANIZATION_ASSIGNMENT ( #144, #147, ( #174 ) ) ;
#12 = AXIS2_PLACEMENT_3D ( 'NONE', #288, #171, #90 ) ;
#13 = CC_DESIGN_PERSON_AND_ORGANIZATION_ASSIGNMENT ( #9, #120, ( #174 ) ) ;
#14 = CARTESIAN_POINT ( 'NONE',  ( 1.316288464743861212E-13, -4.616918432785520292E-15, 37.69999999999999574 ) ) ;
#15 = DIRECTION ( 'NONE',  ( 0.0000000000000000000, 1.000000000000000000, 0.0000000000000000000 ) ) ;
#16 = ORGANIZATION ( 'UNSPECIFIED', 'UNSPECIFIED', '' ) ;
#17 = ORIENTED_EDGE ( 'NONE', *, *, #172, .F. ) ;
#18 = ADVANCED_FACE ( 'NONE', ( #205 ), #301, .T. ) ;
#19 = SHAPE_DEFINITION_REPRESENTATION ( #266, #81 ) ;
#20 = DIRECTION ( 'NONE',  ( 3.491481338843133355E-15, -1.224646799147352961E-16, 1.000000000000000000 ) ) ;
#21 = PERSON_AND_ORGANIZATION ( #140, #16 ) ;
#22 = FACE_OUTER_BOUND ( 'NONE', #176, .T. ) ;
#23 = CONICAL_SURFACE ( 'NONE', #258, 1.499999999999997558, 0.1745329251994260922 ) ;
#24 = CARTESIAN_POINT ( 'NONE',  ( 1.745740669421566678E-14, -6.123233995736765296E-16, 5.000000000000000000 ) ) ;
#25 = VERTEX_POINT ( 'NONE', #68 ) ;
#26 = ADVANCED_FACE ( 'NONE', ( #105, #106 ), #167, .T. ) ;
#27 = VERTEX_POINT ( 'NONE', #166 ) ;
#28 = FACE_BOUND ( 'NONE', #60, .T. ) ;
#29 = CIRCLE ( 'NONE', #201, 0.4491624327025949825 ) ;
#30 = LOCAL_TIME ( 15, 49, 30.00000000000000000, #196 ) ;
#31 = CC_DESIGN_PERSON_AND_ORGANIZATION_ASSIGNMENT ( #210, #97, ( #43 ) ) ;
#32 = CARTESIAN_POINT ( 'NONE',  ( 8.728703347107833388E-16, 0.5934999999999993614, 0.2500000000000000000 ) ) ;
#33 = APPROVAL_ROLE ( '' ) ;
#34 = AXIS2_PLACEMENT_3D ( 'NONE', #24, #260, #195 ) ;
#35 = ORIENTED_EDGE ( 'NONE', *, *, #182, .F. ) ;
#36 = LOCAL_TIME ( 15, 49, 30.00000000000000000, #170 ) ;
#37 = CC_DESIGN_DATE_AND_TIME_ASSIGNMENT ( #198, #212, ( #43 ) ) ;
#38 = EDGE_LOOP ( 'NONE', ( #293 ) ) ;
#39 = PLANE ( 'NONE',  #110 ) ;
#40 = DIRECTION ( 'NONE',  ( 4.275831445896957731E-31, 1.000000000000000000, 1.224646799147352961E-16 ) ) ;
#41 = EDGE_CURVE ( 'NONE', #215, #215, #252, .T. ) ;
#42 = LOCAL_TIME ( 15, 49, 30.00000000000000000, #180 ) ;
#43 = SECURITY_CLASSIFICATION ( '', '', #136 ) ;
#44 = DIRECTION ( 'NONE',  ( -3.491481338843133355E-15, 1.224646799147352961E-16, -1.000000000000000000 ) ) ;
#45 = CALENDAR_DATE ( 2021, 29, 11 ) ;
#46 = DIRECTION ( 'NONE',  ( -4.275831445896957731E-31, -1.000000000000000000, -1.224646799147352961E-16 ) ) ;
#47 = CARTESIAN_POINT ( 'NONE',  ( 4.311035480981396413E-14, -1.512107695968337463E-15, 12.34729635533384773 ) ) ;
#48 = CIRCLE ( 'NONE', #145, 1.200000000000003286 ) ;
#49 = CARTESIAN_POINT ( 'NONE',  ( -9.463679131915806782E-32, 0.4491624327025949825, -2.710505431213761085E-17 ) ) ;
#50 = DIRECTION ( 'NONE',  ( -3.491481338843133355E-15, 1.224646799147352961E-16, -1.000000000000000000 ) ) ;
#51 = DIRECTION ( 'NONE',  ( -3.245037816996188556E-31, -1.000000000000000000, -9.133969439642001606E-17 ) ) ;
#52 = PERSON_AND_ORGANIZATION ( #140, #16 ) ;
#53 = PERSON_AND_ORGANIZATION_ROLE ( 'creator' ) ;
#54 = APPLICATION_CONTEXT ( 'configuration controlled 3d designs of mechanical parts and assemblies' ) ;
#55 = APPROVAL_STATUS ( 'not_yet_approved' ) ;
#56 = DIRECTION ( 'NONE',  ( -3.491481338843133355E-15, 1.224646799147352961E-16, -1.000000000000000000 ) ) ;
#57 = APPROVAL_STATUS ( 'not_yet_approved' ) ;
#58 = DATE_AND_TIME ( #268, #87 ) ;
#59 = ORIENTED_EDGE ( 'NONE', *, *, #206, .T. ) ;
#60 = EDGE_LOOP ( 'NONE', ( #35 ) ) ;
#61 = CC_DESIGN_DATE_AND_TIME_ASSIGNMENT ( #254, #7, ( #101 ) ) ;
#62 = FACE_BOUND ( 'NONE', #225, .T. ) ;
#63 = CARTESIAN_POINT ( 'NONE',  ( 1.326762908760390423E-13, -4.653657836759941152E-15, 38.00000000000000000 ) ) ;
#64 = EDGE_LOOP ( 'NONE', ( #200 ) ) ;
#65 = TOROIDAL_SURFACE ( 'NONE', #154, 2.484999999999999876, 2.000000000000000000 ) ;
#66 = AXIS2_PLACEMENT_3D ( 'NONE', #183, #255, #40 ) ;
#67 = CARTESIAN_POINT ( 'NONE',  ( 1.745740669421566678E-14, 4.450537155049051969E-33, 5.000000000000000000 ) ) ;
#68 = CARTESIAN_POINT ( 'NONE',  ( 1.745740669421566678E-14, 0.5934999999999993614, 5.000000000000000000 ) ) ;
#69 = DIRECTION ( 'NONE',  ( 0.0000000000000000000, 1.000000000000000000, 0.0000000000000000000 ) ) ;
#70 =( GEOMETRIC_REPRESENTATION_CONTEXT ( 3 ) GLOBAL_UNCERTAINTY_ASSIGNED_CONTEXT ( ( #299 ) ) GLOBAL_UNIT_ASSIGNED_CONTEXT ( ( #121, #98, #267 ) ) REPRESENTATION_CONTEXT ( 'NONE', 'WORKASPACE' ) );
#71 = CC_DESIGN_APPROVAL ( #134, ( #174 ) ) ;
#72 = DIRECTION ( 'NONE',  ( 3.491481338843133355E-15, -1.224646799147352961E-16, 1.000000000000000000 ) ) ;
#73 = FACE_OUTER_BOUND ( 'NONE', #122, .T. ) ;
#74 = FACE_BOUND ( 'NONE', #151, .T. ) ;
#75 = APPROVAL_STATUS ( 'not_yet_approved' ) ;
#76 = ADVANCED_FACE ( 'NONE', ( #228 ), #211, .F. ) ;
#77 = EDGE_LOOP ( 'NONE', ( #17 ) ) ;
#78 = ORIENTED_EDGE ( 'NONE', *, *, #269, .F. ) ;
#79 = CC_DESIGN_PERSON_AND_ORGANIZATION_ASSIGNMENT ( #219, #53, ( #101 ) ) ;
#80 = EDGE_LOOP ( 'NONE', ( #124 ) ) ;
#81 = ADVANCED_BREP_SHAPE_REPRESENTATION ( '67307', ( #245, #137, #244 ), #70 ) ;
#82 = DIRECTION ( 'NONE',  ( -3.491481338843133355E-15, 1.224646799147352961E-16, -1.000000000000000000 ) ) ;
#83 = AXIS2_PLACEMENT_3D ( 'NONE', #289, #72, #51 ) ;
#84 = CARTESIAN_POINT ( 'NONE',  ( 1.326762908760390423E-13, 8.998558695971099120E-33, 38.00000000000000000 ) ) ;
#85 = FACE_OUTER_BOUND ( 'NONE', #100, .T. ) ;
#86 = DIRECTION ( 'NONE',  ( 3.245037816996188556E-31, 1.000000000000000000, 9.133969439642001606E-17 ) ) ;
#87 = LOCAL_TIME ( 15, 49, 30.00000000000000000, #290 ) ;
#88 = ORIENTED_EDGE ( 'NONE', *, *, #250, .F. ) ;
#89 = EDGE_CURVE ( 'NONE', #27, #27, #230, .T. ) ;
#90 = DIRECTION ( 'NONE',  ( 4.275831445896957731E-31, 1.000000000000000000, 1.224646799147352961E-16 ) ) ;
#91 = CARTESIAN_POINT ( 'NONE',  ( 1.326762908760390423E-13, 1.199999999999998845, 38.00000000000000000 ) ) ;
#92 = ADVANCED_FACE ( 'NONE', ( #248, #85 ), #103, .T. ) ;
#93 = CIRCLE ( 'NONE', #302, 1.499999999999997558 ) ;
#94 = DIRECTION ( 'NONE',  ( 0.0000000000000000000, 1.000000000000000000, 0.0000000000000000000 ) ) ;
#95 = DIRECTION ( 'NONE',  ( 0.0000000000000000000, 1.000000000000000000, 0.0000000000000000000 ) ) ;
#96 = FACE_OUTER_BOUND ( 'NONE', #80, .T. ) ;
#97 = PERSON_AND_ORGANIZATION_ROLE ( 'classification_officer' ) ;
#98 =( NAMED_UNIT ( * ) PLANE_ANGLE_UNIT ( ) SI_UNIT ( $, .RADIAN. ) );
#99 = CIRCLE ( 'NONE', #4, 0.5935000000000000275 ) ;
#100 = EDGE_LOOP ( 'NONE', ( #296 ) ) ;
#101 = PRODUCT_DEFINITION ( 'UNKNOWN', '', #174, #159 ) ;
#102 = AXIS2_PLACEMENT_3D ( 'NONE', #8, #112, #94 ) ;
#103 = CYLINDRICAL_SURFACE ( 'NONE', #66, 0.5934999999999996945 ) ;
#104 = DIRECTION ( 'NONE',  ( 4.275831445896957731E-31, 1.000000000000000000, 1.224646799147352961E-16 ) ) ;
#105 = FACE_OUTER_BOUND ( 'NONE', #77, .T. ) ;
#106 = FACE_BOUND ( 'NONE', #242, .T. ) ;
#107 = CC_DESIGN_PERSON_AND_ORGANIZATION_ASSIGNMENT ( #52, #216, ( #5 ) ) ;
#108 = CARTESIAN_POINT ( 'NONE',  ( 1.745740669421566678E-14, 4.450537155049051969E-33, 5.000000000000000000 ) ) ;
#109 = DATE_AND_TIME ( #222, #30 ) ;
#110 = AXIS2_PLACEMENT_3D ( 'NONE', #129, #300, #186 ) ;
#111 = CYLINDRICAL_SURFACE ( 'NONE', #287, 1.500000000000000444 ) ;
#112 = DIRECTION ( 'NONE',  ( -3.491481338843133355E-15, 1.224646799147352961E-16, -1.000000000000000000 ) ) ;
#113 = VERTEX_POINT ( 'NONE', #239 ) ;
#114 = MECHANICAL_CONTEXT ( 'NONE', #279, 'mechanical' ) ;
#115 = CONICAL_SURFACE ( 'NONE', #264, 1.200000000000003286, 0.7853981633974453924 ) ;
#116 = DIRECTION ( 'NONE',  ( -3.491481338843133355E-15, 1.224646799147352961E-16, -1.000000000000000000 ) ) ;
#117 = COORDINATED_UNIVERSAL_TIME_OFFSET ( 1, 0, .AHEAD. ) ;
#118 = DIRECTION ( 'NONE',  ( 4.275831445896957731E-31, 1.000000000000000000, 1.224646799147353207E-16 ) ) ;
#119 = CARTESIAN_POINT ( 'NONE',  ( 0.0000000000000000000, 0.0000000000000000000, 0.0000000000000000000 ) ) ;
#120 = PERSON_AND_ORGANIZATION_ROLE ( 'design_supplier' ) ;
#121 =( LENGTH_UNIT ( ) NAMED_UNIT ( * ) SI_UNIT ( .MILLI., .METRE. ) );
#122 = EDGE_LOOP ( 'NONE', ( #272 ) ) ;
#123 = AXIS2_PLACEMENT_3D ( 'NONE', #108, #303, #283 ) ;
#124 = ORIENTED_EDGE ( 'NONE', *, *, #41, .T. ) ;
#125 = CLOSED_SHELL ( 'NONE', ( #157, #275, #92, #18 ) ) ;
#126 = PRODUCT_RELATED_PRODUCT_CATEGORY ( 'detail', '', ( #5 ) ) ;
#127 = ORIENTED_EDGE ( 'NONE', *, *, #41, .F. ) ;
#128 = ADVANCED_FACE ( 'NONE', ( #274, #62 ), #115, .T. ) ;
#129 = CARTESIAN_POINT ( 'NONE',  ( -1.433455383628456155E-31, 5.027884662453298568E-33, -4.105579393139237246E-17 ) ) ;
#130 = APPLICATION_PROTOCOL_DEFINITION ( 'international standard', 'config_control_design', 1994, #54 ) ;
#131 = ORIENTED_EDGE ( 'NONE', *, *, #238, .F. ) ;
#132 = AXIS2_PLACEMENT_3D ( 'NONE', #261, #50, #69 ) ;
#133 = DIRECTION ( 'NONE',  ( 0.0000000000000000000, 1.000000000000000000, 0.0000000000000000000 ) ) ;
#134 = APPROVAL ( #57, 'UNSPECIFIED' ) ;
#135 = DIRECTION ( 'NONE',  ( -3.491481338843133355E-15, 1.224646799147352961E-16, -1.000000000000000000 ) ) ;
#136 = SECURITY_CLASSIFICATION_LEVEL ( 'unclassified' ) ;
#137 = MANIFOLD_SOLID_BREP ( 'Corps-Déplacer/Copier1[2]', #125 ) ;
#138 = DIRECTION ( 'NONE',  ( 0.0000000000000000000, 1.000000000000000000, 0.0000000000000000000 ) ) ;
#139 = AXIS2_PLACEMENT_3D ( 'NONE', #47, #6, #138 ) ;
#140 = PERSON ( 'UNSPECIFIED', 'UNSPECIFIED', 'UNSPECIFIED', ('UNSPECIFIED'), ('UNSPECIFIED'), ('UNSPECIFIED') ) ;
#141 = VERTEX_POINT ( 'NONE', #236 ) ;
#142 = DIRECTION ( 'NONE',  ( -3.491481338843133355E-15, 1.224646799147352961E-16, -1.000000000000000000 ) ) ;
#143 = DIRECTION ( 'NONE',  ( 3.491481338843133355E-15, -1.224646799147352961E-16, 1.000000000000000000 ) ) ;
#144 = PERSON_AND_ORGANIZATION ( #140, #16 ) ;
#145 = AXIS2_PLACEMENT_3D ( 'NONE', #165, #56, #1 ) ;
#146 = DIRECTION ( 'NONE',  ( 0.0000000000000000000, -1.000000000000000000, 0.0000000000000000000 ) ) ;
#147 = PERSON_AND_ORGANIZATION_ROLE ( 'creator' ) ;
#148 = APPROVAL_DATE_TIME ( #58, #149 ) ;
#149 = APPROVAL ( #75, 'UNSPECIFIED' ) ;
#150 = APPROVAL_PERSON_ORGANIZATION ( #21, #134, #33 ) ;
#151 = EDGE_LOOP ( 'NONE', ( #164 ) ) ;
#152 = ORIENTED_EDGE ( 'NONE', *, *, #89, .F. ) ;
#153 = CALENDAR_DATE ( 2021, 29, 11 ) ;
#154 = AXIS2_PLACEMENT_3D ( 'NONE', #240, #217, #169 ) ;
#155 = FACE_OUTER_BOUND ( 'NONE', #298, .T. ) ;
#156 = APPROVAL_ROLE ( '' ) ;
#157 = ADVANCED_FACE ( 'NONE', ( #249 ), #39, .F. ) ;
#158 = DIRECTION ( 'NONE',  ( 0.0000000000000000000, 1.000000000000000000, 0.0000000000000000000 ) ) ;
#159 = DESIGN_CONTEXT ( 'detailed design', #54, 'design' ) ;
#160 = ORIENTED_EDGE ( 'NONE', *, *, #182, .T. ) ;
#161 = ORIENTED_EDGE ( 'NONE', *, *, #291, .F. ) ;
#162 = CIRCLE ( 'NONE', #139, 0.5153844939755811705 ) ;
#163 = CC_DESIGN_APPROVAL ( #243, ( #101 ) ) ;
#164 = ORIENTED_EDGE ( 'NONE', *, *, #206, .F. ) ;
#165 = CARTESIAN_POINT ( 'NONE',  ( 1.326762908760390423E-13, -4.653657836759941152E-15, 38.00000000000000000 ) ) ;
#166 = CARTESIAN_POINT ( 'NONE',  ( 1.316288464743861212E-13, 1.499999999999998668, 37.69999999999999574 ) ) ;
#167 = CONICAL_SURFACE ( 'NONE', #280, 0.4849999999999990985, 0.5235987755982923764 ) ;
#168 = VERTEX_POINT ( 'NONE', #259 ) ;
#169 = DIRECTION ( 'NONE',  ( 4.275831445896957731E-31, 1.000000000000000000, 1.224646799147352961E-16 ) ) ;
#170 = COORDINATED_UNIVERSAL_TIME_OFFSET ( 1, 0, .AHEAD. ) ;
#171 = DIRECTION ( 'NONE',  ( -3.491481338843133355E-15, 1.224646799147352961E-16, -1.000000000000000000 ) ) ;
#172 = EDGE_CURVE ( 'NONE', #25, #25, #99, .T. ) ;
#173 = CIRCLE ( 'NONE', #34, 0.5935000000000000275 ) ;
#174 = PRODUCT_DEFINITION_FORMATION_WITH_SPECIFIED_SOURCE ( 'ANY', '', #5, .NOT_KNOWN. ) ;
#175 = APPROVAL_ROLE ( '' ) ;
#176 = EDGE_LOOP ( 'NONE', ( #199 ) ) ;
#177 = APPROVAL_PERSON_ORGANIZATION ( #277, #243, #156 ) ;
#178 = EDGE_LOOP ( 'NONE', ( #204 ) ) ;
#179 = ORIENTED_EDGE ( 'NONE', *, *, #214, .T. ) ;
#180 = COORDINATED_UNIVERSAL_TIME_OFFSET ( 1, 0, .AHEAD. ) ;
#181 = EDGE_LOOP ( 'NONE', ( #152 ) ) ;
#182 = EDGE_CURVE ( 'NONE', #257, #257, #29, .T. ) ;
#183 = CARTESIAN_POINT ( 'NONE',  ( 0.0000000000000000000, 0.0000000000000000000, 0.0000000000000000000 ) ) ;
#184 = CARTESIAN_POINT ( 'NONE',  ( -2.866910767256912310E-31, 1.005576932490659714E-32, -8.211158786278474492E-17 ) ) ;
#185 = ADVANCED_FACE ( 'NONE', ( #22 ), #276, .F. ) ;
#186 = DIRECTION ( 'NONE',  ( -4.275831445896957731E-31, -1.000000000000000000, -1.224646799147352961E-16 ) ) ;
#187 = DIRECTION ( 'NONE',  ( -3.491481338843133355E-15, 1.224646799147352961E-16, -1.000000000000000000 ) ) ;
#188 = CLOSED_SHELL ( 'NONE', ( #185, #26, #224, #226, #294, #194, #128, #76 ) ) ;
#189 = DIRECTION ( 'NONE',  ( 4.275831445896957731E-31, 1.000000000000000000, 1.224646799147352961E-16 ) ) ;
#190 = FACE_OUTER_BOUND ( 'NONE', #297, .T. ) ;
#191 = VERTEX_POINT ( 'NONE', #286 ) ;
#192 = CIRCLE ( 'NONE', #102, 0.4849999999999999312 ) ;
#193 = FACE_OUTER_BOUND ( 'NONE', #273, .T. ) ;
#194 = ADVANCED_FACE ( 'NONE', ( #155, #73 ), #111, .T. ) ;
#195 = DIRECTION ( 'NONE',  ( 0.0000000000000000000, 1.000000000000000000, 0.0000000000000000000 ) ) ;
#196 = COORDINATED_UNIVERSAL_TIME_OFFSET ( 1, 0, .AHEAD. ) ;
#197 = CARTESIAN_POINT ( 'NONE',  ( 6.260689839836381496E-14, -2.195954389763516575E-15, 17.93132837396403545 ) ) ;
#198 = DATE_AND_TIME ( #45, #246 ) ;
#199 = ORIENTED_EDGE ( 'NONE', *, *, #172, .T. ) ;
#200 = ORIENTED_EDGE ( 'NONE', *, *, #214, .F. ) ;
#201 = AXIS2_PLACEMENT_3D ( 'NONE', #184, #233, #104 ) ;
#202 = AXIS2_PLACEMENT_3D ( 'NONE', #14, #187, #133 ) ;
#203 = CC_DESIGN_APPROVAL ( #149, ( #43 ) ) ;
#204 = ORIENTED_EDGE ( 'NONE', *, *, #238, .T. ) ;
#205 = FACE_OUTER_BOUND ( 'NONE', #231, .T. ) ;
#206 = EDGE_CURVE ( 'NONE', #141, #141, #162, .T. ) ;
#207 = DIRECTION ( 'NONE',  ( -3.491481338843133355E-15, 1.224646799147352961E-16, -1.000000000000000000 ) ) ;
#208 = APPROVAL_DATE_TIME ( #109, #134 ) ;
#209 = CARTESIAN_POINT ( 'NONE',  ( 8.728703347107831416E-16, -3.061616997868381785E-17, 0.2499999999999999445 ) ) ;
#210 = PERSON_AND_ORGANIZATION ( #140, #16 ) ;
#211 = PLANE ( 'NONE',  #295 ) ;
#212 = DATE_TIME_ROLE ( 'classification_date' ) ;
#213 = CARTESIAN_POINT ( 'NONE',  ( 0.0000000000000000000, 0.0000000000000000000, 0.0000000000000000000 ) ) ;
#214 = EDGE_CURVE ( 'NONE', #2, #2, #48, .T. ) ;
#215 = VERTEX_POINT ( 'NONE', #32 ) ;
#216 = PERSON_AND_ORGANIZATION_ROLE ( 'design_owner' ) ;
#217 = DIRECTION ( 'NONE',  ( -3.491481338843133355E-15, 1.224646799147352961E-16, -1.000000000000000000 ) ) ;
#218 = AXIS2_PLACEMENT_3D ( 'NONE', #209, #44, #86 ) ;
#219 = PERSON_AND_ORGANIZATION ( #140, #16 ) ;
#220 = CYLINDRICAL_SURFACE ( 'NONE', #12, 0.4849999999999995426 ) ;
#221 = DIRECTION ( 'NONE',  ( 0.0000000000000000000, 0.0000000000000000000, 1.000000000000000000 ) ) ;
#222 = CALENDAR_DATE ( 2021, 29, 11 ) ;
#223 = CIRCLE ( 'NONE', #132, 0.4849999999999990985 ) ;
#224 = ADVANCED_FACE ( 'NONE', ( #193, #234 ), #220, .T. ) ;
#225 = EDGE_LOOP ( 'NONE', ( #179 ) ) ;
#226 = ADVANCED_FACE ( 'NONE', ( #190, #256 ), #65, .F. ) ;
#227 = APPROVAL_PERSON_ORGANIZATION ( #292, #149, #175 ) ;
#228 = FACE_OUTER_BOUND ( 'NONE', #64, .T. ) ;
#229 = CARTESIAN_POINT ( 'NONE',  ( 1.745740669421566678E-14, -6.123233995736765296E-16, 5.000000000000000000 ) ) ;
#230 = CIRCLE ( 'NONE', #202, 1.500000000000003331 ) ;
#231 = EDGE_LOOP ( 'NONE', ( #78 ) ) ;
#232 = CARTESIAN_POINT ( 'NONE',  ( 1.811355209758788963E-14, -6.353378822540075044E-16, 5.187927512621227422 ) ) ;
#233 = DIRECTION ( 'NONE',  ( -3.491481338843133355E-15, 1.224646799147352961E-16, -1.000000000000000000 ) ) ;
#234 = FACE_OUTER_BOUND ( 'NONE', #178, .T. ) ;
#235 = AXIS2_PLACEMENT_3D ( 'NONE', #67, #20, #46 ) ;
#236 = CARTESIAN_POINT ( 'NONE',  ( 4.311035480981396413E-14, 0.5153844939755796162, 12.34729635533384773 ) ) ;
#237 = FACE_OUTER_BOUND ( 'NONE', #38, .T. ) ;
#238 = EDGE_CURVE ( 'NONE', #113, #113, #192, .T. ) ;
#239 = CARTESIAN_POINT ( 'NONE',  ( 4.189777606611760026E-14, 0.4849999999999984324, 12.00000000000000000 ) ) ;
#240 = CARTESIAN_POINT ( 'NONE',  ( 4.189777606611760026E-14, -1.301042606982605321E-15, 12.00000000000000000 ) ) ;
#241 = CARTESIAN_POINT ( 'NONE',  ( 1.811355209758788963E-14, 0.4849999999999984324, 5.187927512621227422 ) ) ;
#242 = EDGE_LOOP ( 'NONE', ( #251 ) ) ;
#243 = APPROVAL ( #55, 'UNSPECIFIED' ) ;
#244 = AXIS2_PLACEMENT_3D ( 'NONE', #119, #221, #285 ) ;
#245 = MANIFOLD_SOLID_BREP ( 'Corps-Déplacer/Copier1[1]', #188 ) ;
#246 = LOCAL_TIME ( 15, 49, 30.00000000000000000, #117 ) ;
#247 = DATE_AND_TIME ( #153, #42 ) ;
#248 = FACE_OUTER_BOUND ( 'NONE', #270, .T. ) ;
#249 = FACE_OUTER_BOUND ( 'NONE', #278, .T. ) ;
#250 = EDGE_CURVE ( 'NONE', #191, #191, #93, .T. ) ;
#251 = ORIENTED_EDGE ( 'NONE', *, *, #291, .T. ) ;
#252 = CIRCLE ( 'NONE', #218, 0.5934999999999993614 ) ;
#253 = DIRECTION ( 'NONE',  ( -3.491481338843133355E-15, 1.224646799147352961E-16, -1.000000000000000000 ) ) ;
#254 = DATE_AND_TIME ( #282, #36 ) ;
#255 = DIRECTION ( 'NONE',  ( -3.491481338843133355E-15, 1.224646799147352961E-16, -1.000000000000000000 ) ) ;
#256 = FACE_OUTER_BOUND ( 'NONE', #10, .T. ) ;
#257 = VERTEX_POINT ( 'NONE', #49 ) ;
#258 = AXIS2_PLACEMENT_3D ( 'NONE', #197, #143, #146 ) ;
#259 = CARTESIAN_POINT ( 'NONE',  ( 1.745740669421566678E-14, 0.5934999999999993614, 5.000000000000000000 ) ) ;
#260 = DIRECTION ( 'NONE',  ( -3.491481338843133355E-15, 1.224646799147352961E-16, -1.000000000000000000 ) ) ;
#261 = CARTESIAN_POINT ( 'NONE',  ( 1.811355209758788963E-14, -6.353378822540075044E-16, 5.187927512621227422 ) ) ;
#262 = APPLICATION_PROTOCOL_DEFINITION ( 'international standard', 'config_control_design', 1994, #279 ) ;
#263 = APPROVAL_DATE_TIME ( #247, #243 ) ;
#264 = AXIS2_PLACEMENT_3D ( 'NONE', #63, #207, #158 ) ;
#265 = CC_DESIGN_SECURITY_CLASSIFICATION ( #43, ( #174 ) ) ;
#266 = PRODUCT_DEFINITION_SHAPE ( 'NONE', 'NONE',  #101 ) ;
#267 =( NAMED_UNIT ( * ) SI_UNIT ( $, .STERADIAN. ) SOLID_ANGLE_UNIT ( ) );
#268 = CALENDAR_DATE ( 2021, 29, 11 ) ;
#269 = EDGE_CURVE ( 'NONE', #168, #168, #173, .T. ) ;
#270 = EDGE_LOOP ( 'NONE', ( #127 ) ) ;
#271 = CONICAL_SURFACE ( 'NONE', #83, 0.5934999999999993614, 0.5235987755982928205 ) ;
#272 = ORIENTED_EDGE ( 'NONE', *, *, #89, .T. ) ;
#273 = EDGE_LOOP ( 'NONE', ( #161 ) ) ;
#274 = FACE_OUTER_BOUND ( 'NONE', #181, .T. ) ;
#275 = ADVANCED_FACE ( 'NONE', ( #28, #96 ), #271, .T. ) ;
#276 = PLANE ( 'NONE',  #123 ) ;
#277 = PERSON_AND_ORGANIZATION ( #140, #16 ) ;
#278 = EDGE_LOOP ( 'NONE', ( #160 ) ) ;
#279 = APPLICATION_CONTEXT ( 'configuration controlled 3d designs of mechanical parts and assemblies' ) ;
#280 = AXIS2_PLACEMENT_3D ( 'NONE', #232, #253, #281 ) ;
#281 = DIRECTION ( 'NONE',  ( 0.0000000000000000000, 1.000000000000000000, 0.0000000000000000000 ) ) ;
#282 = CALENDAR_DATE ( 2021, 29, 11 ) ;
#283 = DIRECTION ( 'NONE',  ( -4.275831445896957731E-31, -1.000000000000000000, -1.224646799147352961E-16 ) ) ;
#284 = CARTESIAN_POINT ( 'NONE',  ( 6.260689839836381496E-14, -2.195954389763516575E-15, 17.93132837396403545 ) ) ;
#285 = DIRECTION ( 'NONE',  ( 1.000000000000000000, 0.0000000000000000000, 0.0000000000000000000 ) ) ;
#286 = CARTESIAN_POINT ( 'NONE',  ( 6.260689839836381496E-14, 1.499999999999995559, 17.93132837396403545 ) ) ;
#287 = AXIS2_PLACEMENT_3D ( 'NONE', #213, #116, #118 ) ;
#288 = CARTESIAN_POINT ( 'NONE',  ( 0.0000000000000000000, 0.0000000000000000000, 0.0000000000000000000 ) ) ;
#289 = CARTESIAN_POINT ( 'NONE',  ( 8.728703347107831416E-16, -3.061616997868381785E-17, 0.2499999999999999445 ) ) ;
#290 = COORDINATED_UNIVERSAL_TIME_OFFSET ( 1, 0, .AHEAD. ) ;
#291 = EDGE_CURVE ( 'NONE', #3, #3, #223, .T. ) ;
#292 = PERSON_AND_ORGANIZATION ( #140, #16 ) ;
#293 = ORIENTED_EDGE ( 'NONE', *, *, #250, .T. ) ;
#294 = ADVANCED_FACE ( 'NONE', ( #74, #237 ), #23, .T. ) ;
#295 = AXIS2_PLACEMENT_3D ( 'NONE', #84, #82, #189 ) ;
#296 = ORIENTED_EDGE ( 'NONE', *, *, #269, .T. ) ;
#297 = EDGE_LOOP ( 'NONE', ( #131 ) ) ;
#298 = EDGE_LOOP ( 'NONE', ( #88 ) ) ;
#299 = UNCERTAINTY_MEASURE_WITH_UNIT (LENGTH_MEASURE( 1.000000000000000082E-05 ), #121, 'distance_accuracy_value', 'NONE');
#300 = DIRECTION ( 'NONE',  ( 3.491481338843133355E-15, -1.224646799147352961E-16, 1.000000000000000000 ) ) ;
#301 = PLANE ( 'NONE',  #235 ) ;
#302 = AXIS2_PLACEMENT_3D ( 'NONE', #284, #142, #95 ) ;
#303 = DIRECTION ( 'NONE',  ( 3.491481338843133355E-15, -1.224646799147352961E-16, 1.000000000000000000 ) ) ;
ENDSEC;
END-ISO-10303-21;
