ISO-10303-21;
HEADER;
FILE_DESCRIPTION (( 'STEP AP203' ),
    '1' );
FILE_NAME ('67301.step',
    '2021-11-30T08:32:44',
    ( '' ),
    ( '' ),
    'SwSTEP 2.0',
    'SolidWorks 2019',
    '' );
FILE_SCHEMA (( 'CONFIG_CONTROL_DESIGN' ));
ENDSEC;

DATA;
#1 = FACE_OUTER_BOUND ( 'NONE', #236, .T. ) ;
#2 = ADVANCED_FACE ( 'NONE', ( #272, #271 ), #215, .T. ) ;
#3 = LOCAL_TIME ( 9, 32, 44.00000000000000000, #144 ) ;
#4 =( LENGTH_UNIT ( ) NAMED_UNIT ( * ) SI_UNIT ( .MILLI., .METRE. ) );
#5 = ORIENTED_EDGE ( 'NONE', *, *, #217, .T. ) ;
#6 = DIRECTION ( 'NONE',  ( 0.0000000000000000000, 1.000000000000000000, 0.0000000000000000000 ) ) ;
#7 = AXIS2_PLACEMENT_3D ( 'NONE', #292, #176, #291 ) ;
#8 = CC_DESIGN_APPROVAL ( #240, ( #92 ) ) ;
#9 = CARTESIAN_POINT ( 'NONE',  ( 1.892735826383161575E-31, 0.8291624327025947094, 5.421010862427522170E-17 ) ) ;
#10 = ADVANCED_FACE ( 'NONE', ( #263, #1 ), #82, .T. ) ;
#11 = CARTESIAN_POINT ( 'NONE',  ( 7.692239292684960375E-14, 1.499999999999994005, 22.03144896439201617 ) ) ;
#12 = EDGE_LOOP ( 'NONE', ( #19 ) ) ;
#13 = CC_DESIGN_DATE_AND_TIME_ASSIGNMENT ( #44, #139, ( #164 ) ) ;
#14 = EDGE_LOOP ( 'NONE', ( #135 ) ) ;
#15 = COORDINATED_UNIVERSAL_TIME_OFFSET ( 1, 0, .AHEAD. ) ;
#16 = DIRECTION ( 'NONE',  ( -3.491481338843133355E-15, 1.224646799147353207E-16, -1.000000000000000000 ) ) ;
#17 = CLOSED_SHELL ( 'NONE', ( #62, #10, #168, #70, #49, #258, #238, #32 ) ) ;
#18 = AXIS2_PLACEMENT_3D ( 'NONE', #50, #276, #182 ) ;
#19 = ORIENTED_EDGE ( 'NONE', *, *, #114, .F. ) ;
#20 = DIRECTION ( 'NONE',  ( -3.956712777374909581E-31, -1.000000000000000000, -1.113715636862357693E-16 ) ) ;
#21 = CALENDAR_DATE ( 2021, 30, 11 ) ;
#22 = AXIS2_PLACEMENT_3D ( 'NONE', #156, #125, #252 ) ;
#23 = CC_DESIGN_APPROVAL ( #190, ( #164 ) ) ;
#24 = DIRECTION ( 'NONE',  ( -3.491481338843133355E-15, 1.224646799147353207E-16, -1.000000000000000000 ) ) ;
#25 = CALENDAR_DATE ( 2021, 30, 11 ) ;
#26 = AXIS2_PLACEMENT_3D ( 'NONE', #78, #202, #250 ) ;
#27 = CARTESIAN_POINT ( 'NONE',  ( 2.793185071074506684E-14, 0.9734999999999992548, 8.000000000000000000 ) ) ;
#28 = APPROVAL_PERSON_ORGANIZATION ( #48, #265, #234 ) ;
#29 = AXIS2_PLACEMENT_3D ( 'NONE', #106, #243, #31 ) ;
#30 = CIRCLE ( 'NONE', #206, 1.499999999999996669 ) ;
#31 = DIRECTION ( 'NONE',  ( 4.275831445896958607E-31, 1.000000000000000000, 1.224646799147353207E-16 ) ) ;
#32 = ADVANCED_FACE ( 'NONE', ( #242 ), #172, .F. ) ;
#33 = ORIENTED_EDGE ( 'NONE', *, *, #101, .T. ) ;
#34 = CARTESIAN_POINT ( 'NONE',  ( 2.793185071074506684E-14, 7.300080742106578961E-33, 8.000000000000000000 ) ) ;
#35 = AXIS2_PLACEMENT_3D ( 'NONE', #296, #223, #255 ) ;
#36 = DIRECTION ( 'NONE',  ( 3.491481338843133355E-15, -1.224646799147353207E-16, 1.000000000000000000 ) ) ;
#37 = CARTESIAN_POINT ( 'NONE',  ( 6.405924284287275164E-14, -2.246895775456749140E-15, 18.34729635533384595 ) ) ;
#38 = EDGE_CURVE ( 'NONE', #233, #233, #108, .T. ) ;
#39 = CYLINDRICAL_SURFACE ( 'NONE', #26, 0.8199999999999999512 ) ;
#40 = CYLINDRICAL_SURFACE ( 'NONE', #47, 1.499999999999999112 ) ;
#41 = APPLICATION_PROTOCOL_DEFINITION ( 'international standard', 'config_control_design', 1994, #248 ) ;
#42 = FACE_BOUND ( 'NONE', #280, .T. ) ;
#43 = EDGE_LOOP ( 'NONE', ( #154 ) ) ;
#44 = DATE_AND_TIME ( #21, #266 ) ;
#45 = FACE_OUTER_BOUND ( 'NONE', #61, .T. ) ;
#46 = DIRECTION ( 'NONE',  ( -3.491481338843133355E-15, 1.224646799147353207E-16, -1.000000000000000000 ) ) ;
#47 = AXIS2_PLACEMENT_3D ( 'NONE', #118, #24, #121 ) ;
#48 = PERSON_AND_ORGANIZATION ( #153, #107 ) ;
#49 = ADVANCED_FACE ( 'NONE', ( #197, #113 ), #146, .T. ) ;
#50 = CARTESIAN_POINT ( 'NONE',  ( 0.0000000000000000000, 0.0000000000000000000, 0.0000000000000000000 ) ) ;
#51 = ORIENTED_EDGE ( 'NONE', *, *, #155, .F. ) ;
#52 = PERSON_AND_ORGANIZATION ( #153, #107 ) ;
#53 = DIRECTION ( 'NONE',  ( 1.000000000000000000, 0.0000000000000000000, 0.0000000000000000000 ) ) ;
#54 = APPROVAL_PERSON_ORGANIZATION ( #300, #190, #161 ) ;
#55 = UNCERTAINTY_MEASURE_WITH_UNIT (LENGTH_MEASURE( 1.000000000000000082E-05 ), #4, 'distance_accuracy_value', 'NONE');
#56 = CARTESIAN_POINT ( 'NONE',  ( 2.793185071074506684E-14, -9.797174393178825657E-16, 8.000000000000000000 ) ) ;
#57 = ORIENTED_EDGE ( 'NONE', *, *, #175, .T. ) ;
#58 = AXIS2_PLACEMENT_3D ( 'NONE', #211, #227, #222 ) ;
#59 = CC_DESIGN_SECURITY_CLASSIFICATION ( #164, ( #92 ) ) ;
#60 = DIRECTION ( 'NONE',  ( -3.491481338843133355E-15, 1.224646799147353207E-16, -1.000000000000000000 ) ) ;
#61 = EDGE_LOOP ( 'NONE', ( #51 ) ) ;
#62 = ADVANCED_FACE ( 'NONE', ( #133 ), #268, .F. ) ;
#63 = DIRECTION ( 'NONE',  ( -3.491481338843133355E-15, 1.224646799147353207E-16, -1.000000000000000000 ) ) ;
#64 = EDGE_LOOP ( 'NONE', ( #119 ) ) ;
#65 =( GEOMETRIC_REPRESENTATION_CONTEXT ( 3 ) GLOBAL_UNCERTAINTY_ASSIGNED_CONTEXT ( ( #55 ) ) GLOBAL_UNIT_ASSIGNED_CONTEXT ( ( #4, #218, #290 ) ) REPRESENTATION_CONTEXT ( 'NONE', 'WORKASPACE' ) );
#66 = PERSON_AND_ORGANIZATION_ROLE ( 'design_owner' ) ;
#67 = FACE_OUTER_BOUND ( 'NONE', #112, .T. ) ;
#68 = PERSON_AND_ORGANIZATION_ROLE ( 'classification_officer' ) ;
#69 = FACE_OUTER_BOUND ( 'NONE', #143, .T. ) ;
#70 = ADVANCED_FACE ( 'NONE', ( #67, #273 ), #179, .F. ) ;
#71 = DATE_AND_TIME ( #76, #3 ) ;
#72 = DIRECTION ( 'NONE',  ( 0.0000000000000000000, 1.000000000000000000, 0.0000000000000000000 ) ) ;
#73 = FACE_OUTER_BOUND ( 'NONE', #43, .T. ) ;
#74 = CC_DESIGN_PERSON_AND_ORGANIZATION_ASSIGNMENT ( #122, #68, ( #164 ) ) ;
#75 = ORIENTED_EDGE ( 'NONE', *, *, #155, .T. ) ;
#76 = CALENDAR_DATE ( 2021, 30, 11 ) ;
#77 = CIRCLE ( 'NONE', #245, 0.9734999999999992548 ) ;
#78 = CARTESIAN_POINT ( 'NONE',  ( 0.0000000000000000000, 0.0000000000000000000, 0.0000000000000000000 ) ) ;
#79 = APPROVAL_DATE_TIME ( #284, #265 ) ;
#80 = CC_DESIGN_PERSON_AND_ORGANIZATION_ASSIGNMENT ( #187, #281, ( #92 ) ) ;
#81 = VERTEX_POINT ( 'NONE', #145 ) ;
#82 = CONICAL_SURFACE ( 'NONE', #213, 0.9735000000000001430, 0.5235987755982999259 ) ;
#83 = AXIS2_PLACEMENT_3D ( 'NONE', #97, #63, #137 ) ;
#84 = ORIENTED_EDGE ( 'NONE', *, *, #38, .F. ) ;
#85 = CC_DESIGN_PERSON_AND_ORGANIZATION_ASSIGNMENT ( #277, #253, ( #92 ) ) ;
#86 = CARTESIAN_POINT ( 'NONE',  ( 6.405924284287275164E-14, 0.8503844939755788035, 18.34729635533384595 ) ) ;
#87 = LOCAL_TIME ( 9, 32, 44.00000000000000000, #192 ) ;
#88 = AXIS2_PLACEMENT_3D ( 'NONE', #199, #36, #20 ) ;
#89 = EDGE_LOOP ( 'NONE', ( #186 ) ) ;
#90 = DIRECTION ( 'NONE',  ( 0.0000000000000000000, 1.000000000000000000, 0.0000000000000000000 ) ) ;
#91 = EDGE_LOOP ( 'NONE', ( #228 ) ) ;
#92 = PRODUCT_DEFINITION_FORMATION_WITH_SPECIFIED_SOURCE ( 'ANY', '', #111, .NOT_KNOWN. ) ;
#93 = PERSON_AND_ORGANIZATION_ROLE ( 'creator' ) ;
#94 = DIRECTION ( 'NONE',  ( -3.491481338843133355E-15, 1.224646799147353207E-16, -1.000000000000000000 ) ) ;
#95 = MECHANICAL_CONTEXT ( 'NONE', #248, 'mechanical' ) ;
#96 = PRODUCT_DEFINITION_SHAPE ( 'NONE', 'NONE',  #132 ) ;
#97 = CARTESIAN_POINT ( 'NONE',  ( 6.284666409917640040E-14, -2.168404344971008868E-15, 18.00000000000000000 ) ) ;
#98 = ORIENTED_EDGE ( 'NONE', *, *, #175, .F. ) ;
#99 = APPLICATION_PROTOCOL_DEFINITION ( 'international standard', 'config_control_design', 1994, #254 ) ;
#100 = DIRECTION ( 'NONE',  ( -3.491481338843133355E-15, 1.224646799147353207E-16, -1.000000000000000000 ) ) ;
#101 = EDGE_CURVE ( 'NONE', #170, #170, #287, .T. ) ;
#102 = ORIENTED_EDGE ( 'NONE', *, *, #128, .F. ) ;
#103 = DIRECTION ( 'NONE',  ( 0.0000000000000000000, 0.0000000000000000000, 1.000000000000000000 ) ) ;
#104 = CARTESIAN_POINT ( 'NONE',  ( 2.886013015238223984E-14, 0.8199999999999990630, 8.265869798961823278 ) ) ;
#105 = CC_DESIGN_PERSON_AND_ORGANIZATION_ASSIGNMENT ( #52, #66, ( #111 ) ) ;
#106 = CARTESIAN_POINT ( 'NONE',  ( 1.745740669421566678E-13, 8.998558695971067645E-33, 50.00000000000000000 ) ) ;
#107 = ORGANIZATION ( 'UNSPECIFIED', 'UNSPECIFIED', '' ) ;
#108 = CIRCLE ( 'NONE', #212, 0.9735000000000001430 ) ;
#109 = ADVANCED_FACE ( 'NONE', ( #142 ), #279, .F. ) ;
#110 = DIRECTION ( 'NONE',  ( -3.491481338843133355E-15, 1.224646799147353207E-16, -1.000000000000000000 ) ) ;
#111 = PRODUCT ( '67301', '67301', '', ( #95 ) ) ;
#112 = EDGE_LOOP ( 'NONE', ( #298 ) ) ;
#113 = FACE_OUTER_BOUND ( 'NONE', #261, .T. ) ;
#114 = EDGE_CURVE ( 'NONE', #189, #189, #201, .T. ) ;
#115 = VERTEX_POINT ( 'NONE', #198 ) ;
#116 = CIRCLE ( 'NONE', #282, 0.9735000000000001430 ) ;
#117 = FACE_OUTER_BOUND ( 'NONE', #89, .T. ) ;
#118 = CARTESIAN_POINT ( 'NONE',  ( 0.0000000000000000000, 0.0000000000000000000, 0.0000000000000000000 ) ) ;
#119 = ORIENTED_EDGE ( 'NONE', *, *, #217, .F. ) ;
#120 = DIRECTION ( 'NONE',  ( -3.491481338843133355E-15, 1.224646799147353207E-16, -1.000000000000000000 ) ) ;
#121 = DIRECTION ( 'NONE',  ( 4.275831445896958607E-31, 1.000000000000000000, 1.224646799147353454E-16 ) ) ;
#122 = PERSON_AND_ORGANIZATION ( #153, #107 ) ;
#123 = DIRECTION ( 'NONE',  ( 0.0000000000000000000, 1.000000000000000000, 0.0000000000000000000 ) ) ;
#124 = AXIS2_PLACEMENT_3D ( 'NONE', #37, #120, #72 ) ;
#125 = DIRECTION ( 'NONE',  ( -3.491481338843133355E-15, 1.224646799147353207E-16, -1.000000000000000000 ) ) ;
#126 = CARTESIAN_POINT ( 'NONE',  ( 2.793185071074506684E-14, 0.9734999999999992548, 8.000000000000000000 ) ) ;
#127 = CARTESIAN_POINT ( 'NONE',  ( 8.728703347107829444E-16, -3.061616997868381785E-17, 0.2499999999999998890 ) ) ;
#128 = EDGE_CURVE ( 'NONE', #81, #81, #77, .T. ) ;
#129 = CONICAL_SURFACE ( 'NONE', #177, 1.200000000000001732, 0.7853981633974453924 ) ;
#130 = CARTESIAN_POINT ( 'NONE',  ( 6.284666409917638777E-14, 0.8199999999999978417, 17.99999999999999645 ) ) ;
#131 = EDGE_LOOP ( 'NONE', ( #57 ) ) ;
#132 = PRODUCT_DEFINITION ( 'UNKNOWN', '', #92, #244 ) ;
#133 = FACE_OUTER_BOUND ( 'NONE', #251, .T. ) ;
#134 = PRODUCT_RELATED_PRODUCT_CATEGORY ( 'detail', '', ( #111 ) ) ;
#135 = ORIENTED_EDGE ( 'NONE', *, *, #101, .F. ) ;
#136 = FACE_OUTER_BOUND ( 'NONE', #14, .T. ) ;
#137 = DIRECTION ( 'NONE',  ( 4.275831445896958607E-31, 1.000000000000000000, 1.224646799147353207E-16 ) ) ;
#138 = EDGE_LOOP ( 'NONE', ( #33 ) ) ;
#139 = DATE_TIME_ROLE ( 'classification_date' ) ;
#140 = DIRECTION ( 'NONE',  ( -3.491481338843133355E-15, 1.224646799147353207E-16, -1.000000000000000000 ) ) ;
#141 = DIRECTION ( 'NONE',  ( 0.0000000000000000000, 1.000000000000000000, 0.0000000000000000000 ) ) ;
#142 = FACE_OUTER_BOUND ( 'NONE', #150, .T. ) ;
#143 = EDGE_LOOP ( 'NONE', ( #102 ) ) ;
#144 = COORDINATED_UNIVERSAL_TIME_OFFSET ( 1, 0, .AHEAD. ) ;
#145 = CARTESIAN_POINT ( 'NONE',  ( 8.728703347107833388E-16, 0.9734999999999992548, 0.2500000000000000000 ) ) ;
#146 = CONICAL_SURFACE ( 'NONE', #7, 1.499999999999996669, 0.1745329251994262032 ) ;
#147 = MANIFOLD_SOLID_BREP ( 'Corps-Déplacer/Copier1[1]', #17 ) ;
#148 = DIRECTION ( 'NONE',  ( 0.0000000000000000000, 1.000000000000000000, 0.0000000000000000000 ) ) ;
#149 = MANIFOLD_SOLID_BREP ( 'Corps-Déplacer/Copier1[2]', #174 ) ;
#150 = EDGE_LOOP ( 'NONE', ( #196 ) ) ;
#151 = VERTEX_POINT ( 'NONE', #86 ) ;
#152 = CARTESIAN_POINT ( 'NONE',  ( 0.0000000000000000000, 0.0000000000000000000, 0.0000000000000000000 ) ) ;
#153 = PERSON ( 'UNSPECIFIED', 'UNSPECIFIED', 'UNSPECIFIED', ('UNSPECIFIED'), ('UNSPECIFIED'), ('UNSPECIFIED') ) ;
#154 = ORIENTED_EDGE ( 'NONE', *, *, #114, .T. ) ;
#155 = EDGE_CURVE ( 'NONE', #288, #288, #116, .T. ) ;
#156 = CARTESIAN_POINT ( 'NONE',  ( 2.886013015238223984E-14, -1.012277099146737164E-15, 8.265869798961823278 ) ) ;
#157 = APPROVAL_ROLE ( '' ) ;
#158 = FACE_OUTER_BOUND ( 'NONE', #12, .T. ) ;
#159 = COORDINATED_UNIVERSAL_TIME_OFFSET ( 1, 0, .AHEAD. ) ;
#160 = CARTESIAN_POINT ( 'NONE',  ( 1.745740669421566678E-13, -6.123233995736766085E-15, 50.00000000000000000 ) ) ;
#161 = APPROVAL_ROLE ( '' ) ;
#162 = AXIS2_PLACEMENT_3D ( 'NONE', #204, #60, #141 ) ;
#163 = DIRECTION ( 'NONE',  ( 0.0000000000000000000, 1.000000000000000000, 0.0000000000000000000 ) ) ;
#164 = SECURITY_CLASSIFICATION ( '', '', #226 ) ;
#165 = APPROVAL_DATE_TIME ( #71, #190 ) ;
#166 = CALENDAR_DATE ( 2021, 30, 11 ) ;
#167 = CARTESIAN_POINT ( 'NONE',  ( 1.735266225405037467E-13, 1.499999999999995559, 49.70000000000000284 ) ) ;
#168 = ADVANCED_FACE ( 'NONE', ( #117, #136 ), #39, .T. ) ;
#169 = APPROVAL_PERSON_ORGANIZATION ( #237, #240, #157 ) ;
#170 = VERTEX_POINT ( 'NONE', #104 ) ;
#171 = CARTESIAN_POINT ( 'NONE',  ( 2.793185071074506684E-14, -9.797174393178825657E-16, 8.000000000000000000 ) ) ;
#172 = PLANE ( 'NONE',  #29 ) ;
#173 = ORIENTED_EDGE ( 'NONE', *, *, #297, .T. ) ;
#174 = CLOSED_SHELL ( 'NONE', ( #109, #2, #221, #214 ) ) ;
#175 = EDGE_CURVE ( 'NONE', #151, #151, #293, .T. ) ;
#176 = DIRECTION ( 'NONE',  ( 3.491481338843133355E-15, -1.224646799147353207E-16, 1.000000000000000000 ) ) ;
#177 = AXIS2_PLACEMENT_3D ( 'NONE', #160, #140, #210 ) ;
#178 = DIRECTION ( 'NONE',  ( 4.275831445896958607E-31, 1.000000000000000000, 1.224646799147353207E-16 ) ) ;
#179 = TOROIDAL_SURFACE ( 'NONE', #83, 2.819999999999999840, 2.000000000000000000 ) ;
#180 = LOCAL_TIME ( 9, 32, 44.00000000000000000, #15 ) ;
#181 = COORDINATED_UNIVERSAL_TIME_OFFSET ( 1, 0, .AHEAD. ) ;
#182 = DIRECTION ( 'NONE',  ( 4.275831445896958607E-31, 1.000000000000000000, 1.224646799147352961E-16 ) ) ;
#183 = CARTESIAN_POINT ( 'NONE',  ( -1.652622977123013701E-31, 5.796621097799308974E-33, -4.733300329397131132E-17 ) ) ;
#184 = APPROVAL_DATE_TIME ( #256, #240 ) ;
#185 = DIRECTION ( 'NONE',  ( 0.0000000000000000000, 1.000000000000000000, 0.0000000000000000000 ) ) ;
#186 = ORIENTED_EDGE ( 'NONE', *, *, #275, .T. ) ;
#187 = PERSON_AND_ORGANIZATION ( #153, #107 ) ;
#188 = CARTESIAN_POINT ( 'NONE',  ( 2.793185071074506684E-14, -9.797174393178825657E-16, 8.000000000000000000 ) ) ;
#189 = VERTEX_POINT ( 'NONE', #167 ) ;
#190 = APPROVAL ( #229, 'UNSPECIFIED' ) ;
#191 = ORIENTED_EDGE ( 'NONE', *, *, #285, .F. ) ;
#192 = COORDINATED_UNIVERSAL_TIME_OFFSET ( 1, 0, .AHEAD. ) ;
#193 = ORIENTED_EDGE ( 'NONE', *, *, #38, .T. ) ;
#194 = CIRCLE ( 'NONE', #162, 1.200000000000001732 ) ;
#195 = AXIS2_PLACEMENT_3D ( 'NONE', #34, #249, #232 ) ;
#196 = ORIENTED_EDGE ( 'NONE', *, *, #285, .T. ) ;
#197 = FACE_BOUND ( 'NONE', #239, .T. ) ;
#198 = CARTESIAN_POINT ( 'NONE',  ( 1.745740669421566678E-13, 1.199999999999995515, 50.00000000000000000 ) ) ;
#199 = CARTESIAN_POINT ( 'NONE',  ( 8.728703347107829444E-16, -3.061616997868381785E-17, 0.2499999999999998890 ) ) ;
#200 = CC_DESIGN_DATE_AND_TIME_ASSIGNMENT ( #209, #302, ( #132 ) ) ;
#201 = CIRCLE ( 'NONE', #231, 1.500000000000001554 ) ;
#202 = DIRECTION ( 'NONE',  ( -3.491481338843133355E-15, 1.224646799147353207E-16, -1.000000000000000000 ) ) ;
#203 = CARTESIAN_POINT ( 'NONE',  ( 7.692239292684960375E-14, -2.698074345482095072E-15, 22.03144896439201617 ) ) ;
#204 = CARTESIAN_POINT ( 'NONE',  ( 1.745740669421566678E-13, -6.123233995736766085E-15, 50.00000000000000000 ) ) ;
#205 = CALENDAR_DATE ( 2021, 30, 11 ) ;
#206 = AXIS2_PLACEMENT_3D ( 'NONE', #203, #94, #163 ) ;
#207 = LOCAL_TIME ( 9, 32, 44.00000000000000000, #181 ) ;
#208 = PLANE ( 'NONE',  #35 ) ;
#209 = DATE_AND_TIME ( #205, #207 ) ;
#210 = DIRECTION ( 'NONE',  ( 0.0000000000000000000, 1.000000000000000000, 0.0000000000000000000 ) ) ;
#211 = CARTESIAN_POINT ( 'NONE',  ( -8.263114885615068504E-32, 2.898310548899654487E-33, -2.366650164698565566E-17 ) ) ;
#212 = AXIS2_PLACEMENT_3D ( 'NONE', #56, #110, #6 ) ;
#213 = AXIS2_PLACEMENT_3D ( 'NONE', #171, #286, #148 ) ;
#214 = ADVANCED_FACE ( 'NONE', ( #45 ), #208, .T. ) ;
#215 = CONICAL_SURFACE ( 'NONE', #88, 0.9734999999999992548, 0.5235987755982931535 ) ;
#216 = EDGE_LOOP ( 'NONE', ( #274 ) ) ;
#217 = EDGE_CURVE ( 'NONE', #247, #247, #30, .T. ) ;
#218 =( NAMED_UNIT ( * ) PLANE_ANGLE_UNIT ( ) SI_UNIT ( $, .RADIAN. ) );
#219 = CIRCLE ( 'NONE', #230, 0.8199999999999999512 ) ;
#220 = VERTEX_POINT ( 'NONE', #9 ) ;
#221 = ADVANCED_FACE ( 'NONE', ( #69, #257 ), #260, .T. ) ;
#222 = DIRECTION ( 'NONE',  ( -4.275831445896958607E-31, -1.000000000000000000, -1.224646799147353207E-16 ) ) ;
#223 = DIRECTION ( 'NONE',  ( 3.491481338843133355E-15, -1.224646799147353207E-16, 1.000000000000000000 ) ) ;
#224 = CARTESIAN_POINT ( 'NONE',  ( 6.284666409917638777E-14, -2.204364238465235033E-15, 17.99999999999999645 ) ) ;
#225 = EDGE_LOOP ( 'NONE', ( #191 ) ) ;
#226 = SECURITY_CLASSIFICATION_LEVEL ( 'unclassified' ) ;
#227 = DIRECTION ( 'NONE',  ( 3.491481338843133355E-15, -1.224646799147353207E-16, 1.000000000000000000 ) ) ;
#228 = ORIENTED_EDGE ( 'NONE', *, *, #128, .T. ) ;
#229 = APPROVAL_STATUS ( 'not_yet_approved' ) ;
#230 = AXIS2_PLACEMENT_3D ( 'NONE', #224, #295, #90 ) ;
#231 = AXIS2_PLACEMENT_3D ( 'NONE', #235, #16, #123 ) ;
#232 = DIRECTION ( 'NONE',  ( -4.275831445896958607E-31, -1.000000000000000000, -1.224646799147353207E-16 ) ) ;
#233 = VERTEX_POINT ( 'NONE', #126 ) ;
#234 = APPROVAL_ROLE ( '' ) ;
#235 = CARTESIAN_POINT ( 'NONE',  ( 1.735266225405037467E-13, -6.086494591762345225E-15, 49.70000000000000284 ) ) ;
#236 = EDGE_LOOP ( 'NONE', ( #84 ) ) ;
#237 = PERSON_AND_ORGANIZATION ( #153, #107 ) ;
#238 = ADVANCED_FACE ( 'NONE', ( #158, #42 ), #129, .T. ) ;
#239 = EDGE_LOOP ( 'NONE', ( #98 ) ) ;
#240 = APPROVAL ( #278, 'UNSPECIFIED' ) ;
#241 = AXIS2_PLACEMENT_3D ( 'NONE', #152, #103, #53 ) ;
#242 = FACE_OUTER_BOUND ( 'NONE', #216, .T. ) ;
#243 = DIRECTION ( 'NONE',  ( -3.491481338843133355E-15, 1.224646799147353207E-16, -1.000000000000000000 ) ) ;
#244 = DESIGN_CONTEXT ( 'detailed design', #254, 'design' ) ;
#245 = AXIS2_PLACEMENT_3D ( 'NONE', #127, #100, #303 ) ;
#246 = EDGE_LOOP ( 'NONE', ( #75 ) ) ;
#247 = VERTEX_POINT ( 'NONE', #11 ) ;
#248 = APPLICATION_CONTEXT ( 'configuration controlled 3d designs of mechanical parts and assemblies' ) ;
#249 = DIRECTION ( 'NONE',  ( 3.491481338843133355E-15, -1.224646799147353207E-16, 1.000000000000000000 ) ) ;
#250 = DIRECTION ( 'NONE',  ( 4.275831445896958607E-31, 1.000000000000000000, 1.224646799147353207E-16 ) ) ;
#251 = EDGE_LOOP ( 'NONE', ( #193 ) ) ;
#252 = DIRECTION ( 'NONE',  ( 0.0000000000000000000, 1.000000000000000000, 0.0000000000000000000 ) ) ;
#253 = PERSON_AND_ORGANIZATION_ROLE ( 'design_supplier' ) ;
#254 = APPLICATION_CONTEXT ( 'configuration controlled 3d designs of mechanical parts and assemblies' ) ;
#255 = DIRECTION ( 'NONE',  ( -4.275831445896958607E-31, -1.000000000000000000, -1.224646799147353207E-16 ) ) ;
#256 = DATE_AND_TIME ( #25, #180 ) ;
#257 = FACE_OUTER_BOUND ( 'NONE', #246, .T. ) ;
#258 = ADVANCED_FACE ( 'NONE', ( #301, #73 ), #40, .T. ) ;
#259 = CIRCLE ( 'NONE', #270, 0.8291624327025947094 ) ;
#260 = CYLINDRICAL_SURFACE ( 'NONE', #18, 0.9734999999999998099 ) ;
#261 = EDGE_LOOP ( 'NONE', ( #5 ) ) ;
#262 = SHAPE_DEFINITION_REPRESENTATION ( #96, #267 ) ;
#263 = FACE_BOUND ( 'NONE', #138, .T. ) ;
#264 = PERSON_AND_ORGANIZATION ( #153, #107 ) ;
#265 = APPROVAL ( #299, 'UNSPECIFIED' ) ;
#266 = LOCAL_TIME ( 9, 32, 44.00000000000000000, #159 ) ;
#267 = ADVANCED_BREP_SHAPE_REPRESENTATION ( '67301', ( #147, #149, #241 ), #65 ) ;
#268 = PLANE ( 'NONE',  #195 ) ;
#269 = VERTEX_POINT ( 'NONE', #130 ) ;
#270 = AXIS2_PLACEMENT_3D ( 'NONE', #183, #46, #178 ) ;
#271 = FACE_OUTER_BOUND ( 'NONE', #91, .T. ) ;
#272 = FACE_BOUND ( 'NONE', #225, .T. ) ;
#273 = FACE_OUTER_BOUND ( 'NONE', #131, .T. ) ;
#274 = ORIENTED_EDGE ( 'NONE', *, *, #297, .F. ) ;
#275 = EDGE_CURVE ( 'NONE', #269, #269, #219, .T. ) ;
#276 = DIRECTION ( 'NONE',  ( -3.491481338843133355E-15, 1.224646799147353207E-16, -1.000000000000000000 ) ) ;
#277 = PERSON_AND_ORGANIZATION ( #153, #107 ) ;
#278 = APPROVAL_STATUS ( 'not_yet_approved' ) ;
#279 = PLANE ( 'NONE',  #58 ) ;
#280 = EDGE_LOOP ( 'NONE', ( #173 ) ) ;
#281 = PERSON_AND_ORGANIZATION_ROLE ( 'creator' ) ;
#282 = AXIS2_PLACEMENT_3D ( 'NONE', #188, #283, #185 ) ;
#283 = DIRECTION ( 'NONE',  ( -3.491481338843133355E-15, 1.224646799147353207E-16, -1.000000000000000000 ) ) ;
#284 = DATE_AND_TIME ( #166, #87 ) ;
#285 = EDGE_CURVE ( 'NONE', #220, #220, #259, .T. ) ;
#286 = DIRECTION ( 'NONE',  ( -3.491481338843133355E-15, 1.224646799147353207E-16, -1.000000000000000000 ) ) ;
#287 = CIRCLE ( 'NONE', #22, 0.8200000000000000622 ) ;
#288 = VERTEX_POINT ( 'NONE', #27 ) ;
#289 = CC_DESIGN_PERSON_AND_ORGANIZATION_ASSIGNMENT ( #264, #93, ( #132 ) ) ;
#290 =( NAMED_UNIT ( * ) SI_UNIT ( $, .STERADIAN. ) SOLID_ANGLE_UNIT ( ) );
#291 = DIRECTION ( 'NONE',  ( 0.0000000000000000000, -1.000000000000000000, 0.0000000000000000000 ) ) ;
#292 = CARTESIAN_POINT ( 'NONE',  ( 7.692239292684960375E-14, -2.698074345482095072E-15, 22.03144896439201617 ) ) ;
#293 = CIRCLE ( 'NONE', #124, 0.8503844939755810239 ) ;
#294 = CC_DESIGN_APPROVAL ( #265, ( #132 ) ) ;
#295 = DIRECTION ( 'NONE',  ( -3.491481338843133355E-15, 1.224646799147353207E-16, -1.000000000000000000 ) ) ;
#296 = CARTESIAN_POINT ( 'NONE',  ( 2.793185071074506684E-14, 7.300080742106578961E-33, 8.000000000000000000 ) ) ;
#297 = EDGE_CURVE ( 'NONE', #115, #115, #194, .T. ) ;
#298 = ORIENTED_EDGE ( 'NONE', *, *, #275, .F. ) ;
#299 = APPROVAL_STATUS ( 'not_yet_approved' ) ;
#300 = PERSON_AND_ORGANIZATION ( #153, #107 ) ;
#301 = FACE_OUTER_BOUND ( 'NONE', #64, .T. ) ;
#302 = DATE_TIME_ROLE ( 'creation_date' ) ;
#303 = DIRECTION ( 'NONE',  ( 3.956712777374909581E-31, 1.000000000000000000, 1.113715636862357693E-16 ) ) ;
ENDSEC;
END-ISO-10303-21;
