ISO-10303-21;
HEADER;
FILE_DESCRIPTION (( 'STEP AP203' ),
    '1' );
FILE_NAME ('673.step',
    '2021-12-06T13:00:13',
    ( '' ),
    ( '' ),
    'SwSTEP 2.0',
    'SolidWorks 2019',
    '' );
FILE_SCHEMA (( 'CONFIG_CONTROL_DESIGN' ));
ENDSEC;

DATA;
#1 = UNCERTAINTY_MEASURE_WITH_UNIT (LENGTH_MEASURE( 1.000000000000000082E-05 ), #148, 'distance_accuracy_value', 'NONE');
#2 = SECURITY_CLASSIFICATION ( '', '', #29 ) ;
#3 = EDGE_LOOP ( 'NONE', ( #32 ) ) ;
#4 = CC_DESIGN_PERSON_AND_ORGANIZATION_ASSIGNMENT ( #132, #23, ( #45 ) ) ;
#5 = DIRECTION ( 'NONE',  ( 4.275831445896958607E-31, 1.000000000000000000, 1.224646799147353207E-16 ) ) ;
#6 = DIRECTION ( 'NONE',  ( 4.275831445896958607E-31, 1.000000000000000000, 1.224646799147353207E-16 ) ) ;
#7 = ORIENTED_EDGE ( 'NONE', *, *, #142, .T. ) ;
#8 = PERSON_AND_ORGANIZATION ( #22, #92 ) ;
#9 =( NAMED_UNIT ( * ) PLANE_ANGLE_UNIT ( ) SI_UNIT ( $, .RADIAN. ) );
#10 = DATE_AND_TIME ( #162, #137 ) ;
#11 =( NAMED_UNIT ( * ) SI_UNIT ( $, .STERADIAN. ) SOLID_ANGLE_UNIT ( ) );
#12 = COORDINATED_UNIVERSAL_TIME_OFFSET ( 1, 0, .AHEAD. ) ;
#13 = AXIS2_PLACEMENT_3D ( 'NONE', #91, #100, #60 ) ;
#14 = CC_DESIGN_DATE_AND_TIME_ASSIGNMENT ( #10, #101, ( #45 ) ) ;
#15 = PERSON_AND_ORGANIZATION_ROLE ( 'creator' ) ;
#16 = PERSON_AND_ORGANIZATION ( #22, #92 ) ;
#17 = CC_DESIGN_DATE_AND_TIME_ASSIGNMENT ( #42, #152, ( #2 ) ) ;
#18 = ORIENTED_EDGE ( 'NONE', *, *, #149, .F. ) ;
#19 = LOCAL_TIME ( 14, 0, 13.00000000000000000, #135 ) ;
#20 = CYLINDRICAL_SURFACE ( 'NONE', #68, 8.000000000000000000 ) ;
#21 = CARTESIAN_POINT ( 'NONE',  ( -5.024101948928926757E-30, 8.000000000000000000, -1.438959988998140160E-15 ) ) ;
#22 = PERSON ( 'UNSPECIFIED', 'UNSPECIFIED', 'UNSPECIFIED', ('UNSPECIFIED'), ('UNSPECIFIED'), ('UNSPECIFIED') ) ;
#23 = PERSON_AND_ORGANIZATION_ROLE ( 'creator' ) ;
#24 = PERSON_AND_ORGANIZATION_ROLE ( 'design_owner' ) ;
#25 = CALENDAR_DATE ( 2021, 6, 12 ) ;
#26 = EDGE_CURVE ( 'NONE', #76, #76, #134, .T. ) ;
#27 = APPROVAL_DATE_TIME ( #52, #138 ) ;
#28 = AXIS2_PLACEMENT_3D ( 'NONE', #21, #72, #6 ) ;
#29 = SECURITY_CLASSIFICATION_LEVEL ( 'unclassified' ) ;
#30 = APPROVAL_ROLE ( '' ) ;
#31 = DIRECTION ( 'NONE',  ( 3.851859888774471706E-31, 1.000000000000000000, 1.084202172485504434E-16 ) ) ;
#32 = ORIENTED_EDGE ( 'NONE', *, *, #149, .T. ) ;
#33 = DIRECTION ( 'NONE',  ( 4.275831445896958607E-31, 1.000000000000000000, 1.224646799147353207E-16 ) ) ;
#34 = PRODUCT_DEFINITION_SHAPE ( 'NONE', 'NONE',  #45 ) ;
#35 = PRODUCT_DEFINITION_FORMATION_WITH_SPECIFIED_SOURCE ( 'ANY', '', #144, .NOT_KNOWN. ) ;
#36 = VERTEX_POINT ( 'NONE', #99 ) ;
#37 = APPROVAL_STATUS ( 'not_yet_approved' ) ;
#38 = ADVANCED_BREP_SHAPE_REPRESENTATION ( '673', ( #167, #105 ), #110 ) ;
#39 = PERSON_AND_ORGANIZATION ( #22, #92 ) ;
#40 = APPROVAL_DATE_TIME ( #169, #147 ) ;
#41 = APPROVAL_PERSON_ORGANIZATION ( #153, #147, #30 ) ;
#42 = DATE_AND_TIME ( #115, #164 ) ;
#43 = EDGE_LOOP ( 'NONE', ( #159 ) ) ;
#44 = DIRECTION ( 'NONE',  ( -3.491481338843133355E-15, 1.224646799147353207E-16, -1.000000000000000000 ) ) ;
#45 = PRODUCT_DEFINITION ( 'UNKNOWN', '', #35, #65 ) ;
#46 = DIRECTION ( 'NONE',  ( 4.275831445896958607E-31, 1.000000000000000000, 1.224646799147353207E-16 ) ) ;
#47 = PLANE ( 'NONE',  #163 ) ;
#48 = AXIS2_PLACEMENT_3D ( 'NONE', #50, #62, #51 ) ;
#49 = PERSON_AND_ORGANIZATION ( #22, #92 ) ;
#50 = CARTESIAN_POINT ( 'NONE',  ( -3.420665156717566185E-30, 1.199807826129486086E-31, -9.797174393178825657E-16 ) ) ;
#51 = DIRECTION ( 'NONE',  ( 4.275831445896958607E-31, 1.000000000000000000, 1.224646799147353207E-16 ) ) ;
#52 = DATE_AND_TIME ( #25, #19 ) ;
#53 = PERSON_AND_ORGANIZATION ( #22, #92 ) ;
#54 = CARTESIAN_POINT ( 'NONE',  ( -1.346886905457541760E-29, 4.724243315384851574E-31, -3.857637417314162689E-15 ) ) ;
#55 = AXIS2_PLACEMENT_3D ( 'NONE', #157, #44, #46 ) ;
#56 = CIRCLE ( 'NONE', #48, 8.000000000000000000 ) ;
#57 = FACE_OUTER_BOUND ( 'NONE', #3, .T. ) ;
#58 = FACE_OUTER_BOUND ( 'NONE', #139, .T. ) ;
#59 = FACE_BOUND ( 'NONE', #73, .T. ) ;
#60 = DIRECTION ( 'NONE',  ( 4.402125587170824932E-31, 1.000000000000000000, 1.239088197126290817E-16 ) ) ;
#61 = CARTESIAN_POINT ( 'NONE',  ( 2.736911063134408342E-45, 31.50000000000000000, 0.0000000000000000000 ) ) ;
#62 = DIRECTION ( 'NONE',  ( -3.491481338843133355E-15, 1.224646799147353207E-16, -1.000000000000000000 ) ) ;
#63 = APPROVAL_STATUS ( 'not_yet_approved' ) ;
#64 = PERSON_AND_ORGANIZATION_ROLE ( 'classification_officer' ) ;
#65 = DESIGN_CONTEXT ( 'detailed design', #79, 'design' ) ;
#66 = PERSON_AND_ORGANIZATION_ROLE ( 'design_supplier' ) ;
#67 = ORIENTED_EDGE ( 'NONE', *, *, #87, .F. ) ;
#68 = AXIS2_PLACEMENT_3D ( 'NONE', #71, #119, #5 ) ;
#69 = APPLICATION_CONTEXT ( 'configuration controlled 3d designs of mechanical parts and assemblies' ) ;
#70 = CC_DESIGN_APPROVAL ( #150, ( #45 ) ) ;
#71 = CARTESIAN_POINT ( 'NONE',  ( 0.0000000000000000000, 0.0000000000000000000, 0.0000000000000000000 ) ) ;
#72 = DIRECTION ( 'NONE',  ( -3.491481338843133355E-15, 1.224646799147353207E-16, -1.000000000000000000 ) ) ;
#73 = EDGE_LOOP ( 'NONE', ( #143 ) ) ;
#74 = DIRECTION ( 'NONE',  ( -4.275831445896958607E-31, -1.000000000000000000, -1.224646799147353207E-16 ) ) ;
#75 = APPROVAL_STATUS ( 'not_yet_approved' ) ;
#76 = VERTEX_POINT ( 'NONE', #61 ) ;
#77 = APPLICATION_PROTOCOL_DEFINITION ( 'international standard', 'config_control_design', 1994, #69 ) ;
#78 = CC_DESIGN_APPROVAL ( #138, ( #35 ) ) ;
#79 = APPLICATION_CONTEXT ( 'configuration controlled 3d designs of mechanical parts and assemblies' ) ;
#80 = FACE_OUTER_BOUND ( 'NONE', #94, .T. ) ;
#81 = FACE_BOUND ( 'NONE', #107, .T. ) ;
#82 = LOCAL_TIME ( 14, 0, 13.00000000000000000, #85 ) ;
#83 = DIRECTION ( 'NONE',  ( 0.0000000000000000000, 0.0000000000000000000, 1.000000000000000000 ) ) ;
#84 = ADVANCED_FACE ( 'NONE', ( #57, #106 ), #156, .T. ) ;
#85 = COORDINATED_UNIVERSAL_TIME_OFFSET ( 1, 0, .AHEAD. ) ;
#86 = DIRECTION ( 'NONE',  ( 1.000000000000000000, 0.0000000000000000000, 0.0000000000000000000 ) ) ;
#87 = EDGE_CURVE ( 'NONE', #36, #36, #126, .T. ) ;
#88 = ADVANCED_FACE ( 'NONE', ( #80, #128 ), #20, .F. ) ;
#89 = AXIS2_PLACEMENT_3D ( 'NONE', #95, #141, #31 ) ;
#90 = APPROVAL_ROLE ( '' ) ;
#91 = CARTESIAN_POINT ( 'NONE',  ( 8.728703347107819189E-15, -3.061616997868378211E-16, 2.499999999999996003 ) ) ;
#92 = ORGANIZATION ( 'UNSPECIFIED', 'UNSPECIFIED', '' ) ;
#93 = CC_DESIGN_PERSON_AND_ORGANIZATION_ASSIGNMENT ( #53, #64, ( #2 ) ) ;
#94 = EDGE_LOOP ( 'NONE', ( #7 ) ) ;
#95 = CARTESIAN_POINT ( 'NONE',  ( 8.728703347107830233E-15, -3.061616997868382155E-16, 2.499999999999999112 ) ) ;
#96 = CARTESIAN_POINT ( 'NONE',  ( 8.728703347107828655E-15, 8.000000000000000000, 2.499999999999998668 ) ) ;
#97 = CARTESIAN_POINT ( 'NONE',  ( 0.0000000000000000000, 0.0000000000000000000, 0.0000000000000000000 ) ) ;
#98 = APPROVAL_PERSON_ORGANIZATION ( #39, #138, #90 ) ;
#99 = CARTESIAN_POINT ( 'NONE',  ( 8.728703347107833388E-15, 8.000000000000000000, 2.500000000000000000 ) ) ;
#100 = DIRECTION ( 'NONE',  ( -3.491481338843133355E-15, 1.224646799147353207E-16, -1.000000000000000000 ) ) ;
#101 = DATE_TIME_ROLE ( 'creation_date' ) ;
#102 = MECHANICAL_CONTEXT ( 'NONE', #69, 'mechanical' ) ;
#103 = CALENDAR_DATE ( 2021, 6, 12 ) ;
#104 = DIRECTION ( 'NONE',  ( -3.491481338843133355E-15, 1.224646799147353207E-16, -1.000000000000000000 ) ) ;
#105 = AXIS2_PLACEMENT_3D ( 'NONE', #97, #83, #86 ) ;
#106 = FACE_OUTER_BOUND ( 'NONE', #43, .T. ) ;
#107 = EDGE_LOOP ( 'NONE', ( #140 ) ) ;
#108 = APPLICATION_PROTOCOL_DEFINITION ( 'international standard', 'config_control_design', 1994, #79 ) ;
#109 = AXIS2_PLACEMENT_3D ( 'NONE', #54, #104, #33 ) ;
#110 =( GEOMETRIC_REPRESENTATION_CONTEXT ( 3 ) GLOBAL_UNCERTAINTY_ASSIGNED_CONTEXT ( ( #1 ) ) GLOBAL_UNIT_ASSIGNED_CONTEXT ( ( #148, #9, #11 ) ) REPRESENTATION_CONTEXT ( 'NONE', 'WORKASPACE' ) );
#111 = CARTESIAN_POINT ( 'NONE',  ( 6.842277657836020854E-46, 8.000000000000000000, 0.0000000000000000000 ) ) ;
#112 = CC_DESIGN_PERSON_AND_ORGANIZATION_ASSIGNMENT ( #8, #15, ( #35 ) ) ;
#113 = ADVANCED_FACE ( 'NONE', ( #58, #81 ), #130, .T. ) ;
#114 = COORDINATED_UNIVERSAL_TIME_OFFSET ( 1, 0, .AHEAD. ) ;
#115 = CALENDAR_DATE ( 2021, 6, 12 ) ;
#116 = CLOSED_SHELL ( 'NONE', ( #113, #84, #133, #88 ) ) ;
#117 = LOCAL_TIME ( 14, 0, 13.00000000000000000, #114 ) ;
#118 = PRODUCT_RELATED_PRODUCT_CATEGORY ( 'detail', '', ( #144 ) ) ;
#119 = DIRECTION ( 'NONE',  ( -3.491481338843133355E-15, 1.224646799147353207E-16, -1.000000000000000000 ) ) ;
#120 = CC_DESIGN_SECURITY_CLASSIFICATION ( #2, ( #35 ) ) ;
#121 = ORIENTED_EDGE ( 'NONE', *, *, #26, .T. ) ;
#122 = COORDINATED_UNIVERSAL_TIME_OFFSET ( 1, 0, .AHEAD. ) ;
#123 = CARTESIAN_POINT ( 'NONE',  ( 8.728703347107833388E-15, 31.50000000000000000, 2.500000000000000000 ) ) ;
#124 = CALENDAR_DATE ( 2021, 6, 12 ) ;
#125 = VERTEX_POINT ( 'NONE', #111 ) ;
#126 = CIRCLE ( 'NONE', #89, 8.000000000000000000 ) ;
#127 = APPROVAL_PERSON_ORGANIZATION ( #168, #150, #166 ) ;
#128 = FACE_OUTER_BOUND ( 'NONE', #155, .T. ) ;
#129 = CC_DESIGN_APPROVAL ( #147, ( #2 ) ) ;
#130 = PLANE ( 'NONE',  #28 ) ;
#131 = EDGE_LOOP ( 'NONE', ( #18 ) ) ;
#132 = PERSON_AND_ORGANIZATION ( #22, #92 ) ;
#133 = ADVANCED_FACE ( 'NONE', ( #59, #158 ), #47, .T. ) ;
#134 = CIRCLE ( 'NONE', #109, 31.50000000000000000 ) ;
#135 = COORDINATED_UNIVERSAL_TIME_OFFSET ( 1, 0, .AHEAD. ) ;
#136 = SHAPE_DEFINITION_REPRESENTATION ( #34, #38 ) ;
#137 = LOCAL_TIME ( 14, 0, 13.00000000000000000, #122 ) ;
#138 = APPROVAL ( #37, 'UNSPECIFIED' ) ;
#139 = EDGE_LOOP ( 'NONE', ( #121 ) ) ;
#140 = ORIENTED_EDGE ( 'NONE', *, *, #142, .F. ) ;
#141 = DIRECTION ( 'NONE',  ( -3.491481338843133355E-15, 1.224646799147353207E-16, -1.000000000000000000 ) ) ;
#142 = EDGE_CURVE ( 'NONE', #125, #125, #56, .T. ) ;
#143 = ORIENTED_EDGE ( 'NONE', *, *, #87, .T. ) ;
#144 = PRODUCT ( '673', '673', '', ( #102 ) ) ;
#145 = APPROVAL_DATE_TIME ( #151, #150 ) ;
#146 = CIRCLE ( 'NONE', #13, 31.50000000000000000 ) ;
#147 = APPROVAL ( #63, 'UNSPECIFIED' ) ;
#148 =( LENGTH_UNIT ( ) NAMED_UNIT ( * ) SI_UNIT ( .MILLI., .METRE. ) );
#149 = EDGE_CURVE ( 'NONE', #165, #165, #146, .T. ) ;
#150 = APPROVAL ( #75, 'UNSPECIFIED' ) ;
#151 = DATE_AND_TIME ( #124, #82 ) ;
#152 = DATE_TIME_ROLE ( 'classification_date' ) ;
#153 = PERSON_AND_ORGANIZATION ( #22, #92 ) ;
#154 = CC_DESIGN_PERSON_AND_ORGANIZATION_ASSIGNMENT ( #49, #24, ( #144 ) ) ;
#155 = EDGE_LOOP ( 'NONE', ( #67 ) ) ;
#156 = CYLINDRICAL_SURFACE ( 'NONE', #55, 31.50000000000000000 ) ;
#157 = CARTESIAN_POINT ( 'NONE',  ( 0.0000000000000000000, 0.0000000000000000000, 0.0000000000000000000 ) ) ;
#158 = FACE_OUTER_BOUND ( 'NONE', #131, .T. ) ;
#159 = ORIENTED_EDGE ( 'NONE', *, *, #26, .F. ) ;
#160 = DIRECTION ( 'NONE',  ( 3.491481338843133355E-15, -1.224646799147353207E-16, 1.000000000000000000 ) ) ;
#161 = CC_DESIGN_PERSON_AND_ORGANIZATION_ASSIGNMENT ( #16, #66, ( #35 ) ) ;
#162 = CALENDAR_DATE ( 2021, 6, 12 ) ;
#163 = AXIS2_PLACEMENT_3D ( 'NONE', #96, #160, #74 ) ;
#164 = LOCAL_TIME ( 14, 0, 13.00000000000000000, #12 ) ;
#165 = VERTEX_POINT ( 'NONE', #123 ) ;
#166 = APPROVAL_ROLE ( '' ) ;
#167 = MANIFOLD_SOLID_BREP ( 'Corps-Déplacer/Copier1', #116 ) ;
#168 = PERSON_AND_ORGANIZATION ( #22, #92 ) ;
#169 = DATE_AND_TIME ( #103, #117 ) ;
ENDSEC;
END-ISO-10303-21;
