ISO-10303-21;
HEADER;
FILE_DESCRIPTION (( 'STEP AP203' ),
    '1' );
FILE_NAME ('67283.step',
    '2021-11-01T12:23:50',
    ( '' ),
    ( '' ),
    'SwSTEP 2.0',
    'SolidWorks 2019',
    '' );
FILE_SCHEMA (( 'CONFIG_CONTROL_DESIGN' ));
ENDSEC;

DATA;
#1 = DATE_AND_TIME ( #24, #215 ) ;
#2 = EDGE_LOOP ( 'NONE', ( #38 ) ) ;
#3 = PLANE ( 'NONE',  #171 ) ;
#4 = DESIGN_CONTEXT ( 'detailed design', #203, 'design' ) ;
#5 = FACE_OUTER_BOUND ( 'NONE', #189, .T. ) ;
#6 = DIRECTION ( 'NONE',  ( 3.491481338843133355E-15, -1.227517819005651059E-16, 1.000000000000000000 ) ) ;
#7 = DIRECTION ( 'NONE',  ( -4.285855558155654155E-31, -1.000000000000000000, -1.227517819005651059E-16 ) ) ;
#8 = CLOSED_SHELL ( 'NONE', ( #219, #191, #146 ) ) ;
#9 = FACE_OUTER_BOUND ( 'NONE', #172, .T. ) ;
#10 = AXIS2_PLACEMENT_3D ( 'NONE', #122, #136, #182 ) ;
#11 = CARTESIAN_POINT ( 'NONE',  ( 1.780655482809997696E-14, 1.124819836996386911E-32, 5.099999999999999645 ) ) ;
#12 = FACE_BOUND ( 'NONE', #168, .T. ) ;
#13 = CARTESIAN_POINT ( 'NONE',  ( 1.316288464743861212E-13, 1.499999999999992228, 37.69999999999999574 ) ) ;
#14 = CC_DESIGN_SECURITY_CLASSIFICATION ( #97, ( #147 ) ) ;
#15 = PRODUCT_DEFINITION ( 'UNKNOWN', '', #147, #4 ) ;
#16 = CARTESIAN_POINT ( 'NONE',  ( 2.883516010942448074E-14, 1.499999999999994449, 8.258718094417400124 ) ) ;
#17 = CARTESIAN_POINT ( 'NONE',  ( 1.780655482809997380E-14, -0.8500000000000013101, 5.099999999999998757 ) ) ;
#18 = PRODUCT_DEFINITION_SHAPE ( 'NONE', 'NONE',  #15 ) ;
#19 = AXIS2_PLACEMENT_3D ( 'NONE', #121, #198, #202 ) ;
#20 = APPLICATION_PROTOCOL_DEFINITION ( 'international standard', 'config_control_design', 1994, #187 ) ;
#21 = EDGE_LOOP ( 'NONE', ( #161 ) ) ;
#22 = EDGE_LOOP ( 'NONE', ( #82 ) ) ;
#23 = APPROVAL_DATE_TIME ( #34, #110 ) ;
#24 = CALENDAR_DATE ( 2021, 1, 11 ) ;
#25 = EDGE_LOOP ( 'NONE', ( #84 ) ) ;
#26 = SHAPE_DEFINITION_REPRESENTATION ( #18, #33 ) ;
#27 = CARTESIAN_POINT ( 'NONE',  ( 0.0000000000000000000, 0.0000000000000000000, 0.0000000000000000000 ) ) ;
#28 = AXIS2_PLACEMENT_3D ( 'NONE', #42, #216, #46 ) ;
#29 = DIRECTION ( 'NONE',  ( -3.491481338843133355E-15, 1.224646799147353207E-16, -1.000000000000000000 ) ) ;
#30 = FACE_OUTER_BOUND ( 'NONE', #22, .T. ) ;
#31 = DIRECTION ( 'NONE',  ( 3.491481338843133355E-15, -1.227517819005651059E-16, 1.000000000000000000 ) ) ;
#32 = FACE_OUTER_BOUND ( 'NONE', #21, .T. ) ;
#33 = ADVANCED_BREP_SHAPE_REPRESENTATION ( '67283', ( #143, #220, #166 ), #194 ) ;
#34 = DATE_AND_TIME ( #222, #113 ) ;
#35 = CIRCLE ( 'NONE', #19, 0.8500000000000007550 ) ;
#36 = APPROVAL_STATUS ( 'not_yet_approved' ) ;
#37 = DIRECTION ( 'NONE',  ( 0.0000000000000000000, 0.0000000000000000000, 1.000000000000000000 ) ) ;
#38 = ORIENTED_EDGE ( 'NONE', *, *, #78, .F. ) ;
#39 = PERSON_AND_ORGANIZATION ( #151, #217 ) ;
#40 = APPROVAL_PERSON_ORGANIZATION ( #104, #142, #132 ) ;
#41 = DATE_AND_TIME ( #81, #206 ) ;
#42 = CARTESIAN_POINT ( 'NONE',  ( 1.780655482809997380E-14, 0.0000000000000000000, 5.099999999999998757 ) ) ;
#43 = DIRECTION ( 'NONE',  ( 0.0000000000000000000, 1.000000000000000000, 0.0000000000000000000 ) ) ;
#44 = CC_DESIGN_PERSON_AND_ORGANIZATION_ASSIGNMENT ( #39, #83, ( #147 ) ) ;
#45 = CARTESIAN_POINT ( 'NONE',  ( -8.551680453529350800E-31, 2.999525725151307090E-32, -2.449298628175645296E-16 ) ) ;
#46 = DIRECTION ( 'NONE',  ( -4.348894832703450587E-31, -1.000000000000000000, -1.227517819005651059E-16 ) ) ;
#47 = LOCAL_TIME ( 13, 23, 50.00000000000000000, #52 ) ;
#48 = CARTESIAN_POINT ( 'NONE',  ( 1.326762908760390423E-13, 1.199999999999991962, 38.00000000000000000 ) ) ;
#49 = ADVANCED_FACE ( 'NONE', ( #5 ), #71, .F. ) ;
#50 = ORIENTED_EDGE ( 'NONE', *, *, #85, .T. ) ;
#51 = APPROVAL ( #134, 'UNSPECIFIED' ) ;
#52 = COORDINATED_UNIVERSAL_TIME_OFFSET ( 1, 0, .AHEAD. ) ;
#53 = TOROIDAL_SURFACE ( 'NONE', #28, 8.849999999999999645, 8.000000000000000000 ) ;
#54 = SECURITY_CLASSIFICATION_LEVEL ( 'unclassified' ) ;
#55 = ADVANCED_FACE ( 'NONE', ( #30, #12 ), #199, .T. ) ;
#56 = APPROVAL_STATUS ( 'not_yet_approved' ) ;
#57 = APPROVAL_ROLE ( '' ) ;
#58 = AXIS2_PLACEMENT_3D ( 'NONE', #105, #197, #43 ) ;
#59 = CARTESIAN_POINT ( 'NONE',  ( 1.780655482809997696E-14, 1.124819836996386911E-32, 5.099999999999999645 ) ) ;
#60 = CYLINDRICAL_SURFACE ( 'NONE', #74, 0.8499999999999997558 ) ;
#61 = CARTESIAN_POINT ( 'NONE',  ( -7.285954448864600766E-31, -0.8499999999999987566, -2.086780292309603891E-16 ) ) ;
#62 = EDGE_LOOP ( 'NONE', ( #103 ) ) ;
#63 = PERSON_AND_ORGANIZATION ( #151, #217 ) ;
#64 = CARTESIAN_POINT ( 'NONE',  ( -3.642977224432300383E-31, -9.741282687068020802E-33, -1.043390146154801945E-16 ) ) ;
#65 = ORIENTED_EDGE ( 'NONE', *, *, #177, .T. ) ;
#66 = EDGE_CURVE ( 'NONE', #123, #123, #133, .T. ) ;
#67 = AXIS2_PLACEMENT_3D ( 'NONE', #11, #137, #218 ) ;
#68 = COORDINATED_UNIVERSAL_TIME_OFFSET ( 1, 0, .AHEAD. ) ;
#69 = APPROVAL_PERSON_ORGANIZATION ( #63, #110, #169 ) ;
#70 = DIRECTION ( 'NONE',  ( 3.491481338843133355E-15, -1.224646799147353207E-16, 1.000000000000000000 ) ) ;
#71 = PLANE ( 'NONE',  #107 ) ;
#72 = PLANE ( 'NONE',  #67 ) ;
#73 = CC_DESIGN_DATE_AND_TIME_ASSIGNMENT ( #1, #87, ( #97 ) ) ;
#74 = AXIS2_PLACEMENT_3D ( 'NONE', #158, #6, #95 ) ;
#75 = AXIS2_PLACEMENT_3D ( 'NONE', #76, #31, #94 ) ;
#76 = CARTESIAN_POINT ( 'NONE',  ( 1.780655482809997380E-14, -6.260340876928819068E-16, 5.099999999999998757 ) ) ;
#77 = ADVANCED_FACE ( 'NONE', ( #174, #139 ), #162, .T. ) ;
#78 = EDGE_CURVE ( 'NONE', #178, #178, #35, .T. ) ;
#79 = AXIS2_PLACEMENT_3D ( 'NONE', #64, #131, #7 ) ;
#80 = CC_DESIGN_APPROVAL ( #110, ( #15 ) ) ;
#81 = CALENDAR_DATE ( 2021, 1, 11 ) ;
#82 = ORIENTED_EDGE ( 'NONE', *, *, #196, .F. ) ;
#83 = PERSON_AND_ORGANIZATION_ROLE ( 'design_supplier' ) ;
#84 = ORIENTED_EDGE ( 'NONE', *, *, #196, .T. ) ;
#85 = EDGE_CURVE ( 'NONE', #165, #165, #99, .T. ) ;
#86 = CIRCLE ( 'NONE', #58, 1.499999999999996669 ) ;
#87 = DATE_TIME_ROLE ( 'classification_date' ) ;
#88 = ORIENTED_EDGE ( 'NONE', *, *, #177, .F. ) ;
#89 = CC_DESIGN_PERSON_AND_ORGANIZATION_ASSIGNMENT ( #154, #188, ( #181 ) ) ;
#90 = FACE_OUTER_BOUND ( 'NONE', #2, .T. ) ;
#91 = UNCERTAINTY_MEASURE_WITH_UNIT (LENGTH_MEASURE( 1.000000000000000082E-05 ), #127, 'distance_accuracy_value', 'NONE');
#92 = DIRECTION ( 'NONE',  ( -3.491481338843133355E-15, 1.224646799147353207E-16, -1.000000000000000000 ) ) ;
#93 = FACE_OUTER_BOUND ( 'NONE', #204, .T. ) ;
#94 = DIRECTION ( 'NONE',  ( 0.0000000000000000000, -1.000000000000000000, 0.0000000000000000000 ) ) ;
#95 = DIRECTION ( 'NONE',  ( -4.285855558155653280E-31, -1.000000000000000000, -1.227517819005651059E-16 ) ) ;
#96 = CC_DESIGN_DATE_AND_TIME_ASSIGNMENT ( #41, #119, ( #15 ) ) ;
#97 = SECURITY_CLASSIFICATION ( '', '', #54 ) ;
#98 = PERSON_AND_ORGANIZATION_ROLE ( 'classification_officer' ) ;
#99 = CIRCLE ( 'NONE', #145, 1.199999999999996403 ) ;
#100 = CC_DESIGN_PERSON_AND_ORGANIZATION_ASSIGNMENT ( #118, #98, ( #97 ) ) ;
#101 = PERSON_AND_ORGANIZATION ( #151, #217 ) ;
#102 = MECHANICAL_CONTEXT ( 'NONE', #187, 'mechanical' ) ;
#103 = ORIENTED_EDGE ( 'NONE', *, *, #66, .F. ) ;
#104 = PERSON_AND_ORGANIZATION ( #151, #217 ) ;
#105 = CARTESIAN_POINT ( 'NONE',  ( 1.316288464743861212E-13, -4.616918432785521081E-15, 37.69999999999999574 ) ) ;
#106 = FACE_OUTER_BOUND ( 'NONE', #62, .T. ) ;
#107 = AXIS2_PLACEMENT_3D ( 'NONE', #201, #111, #179 ) ;
#108 = CC_DESIGN_APPROVAL ( #142, ( #147 ) ) ;
#109 = DIRECTION ( 'NONE',  ( 4.275831445896958607E-31, 1.000000000000000000, 1.224646799147353207E-16 ) ) ;
#110 = APPROVAL ( #56, 'UNSPECIFIED' ) ;
#111 = DIRECTION ( 'NONE',  ( -3.491481338843133355E-15, 1.224646799147353207E-16, -1.000000000000000000 ) ) ;
#112 = DIRECTION ( 'NONE',  ( -4.275831445896958607E-31, -1.000000000000000000, -1.224646799147353207E-16 ) ) ;
#113 = LOCAL_TIME ( 13, 23, 50.00000000000000000, #212 ) ;
#114 = DIRECTION ( 'NONE',  ( 1.000000000000000000, 0.0000000000000000000, 0.0000000000000000000 ) ) ;
#115 = ORIENTED_EDGE ( 'NONE', *, *, #78, .T. ) ;
#116 = PERSON_AND_ORGANIZATION ( #151, #217 ) ;
#117 = ORIENTED_EDGE ( 'NONE', *, *, #66, .T. ) ;
#118 = PERSON_AND_ORGANIZATION ( #151, #217 ) ;
#119 = DATE_TIME_ROLE ( 'creation_date' ) ;
#120 = DATE_AND_TIME ( #167, #47 ) ;
#121 = CARTESIAN_POINT ( 'NONE',  ( 1.780655482809997380E-14, -6.260340876928819068E-16, 5.099999999999998757 ) ) ;
#122 = CARTESIAN_POINT ( 'NONE',  ( 2.883516010942448074E-14, -3.877382746112936507E-16, 8.258718094417400124 ) ) ;
#123 = VERTEX_POINT ( 'NONE', #61 ) ;
#124 = DIRECTION ( 'NONE',  ( 0.0000000000000000000, 1.000000000000000000, 0.0000000000000000000 ) ) ;
#125 = ORIENTED_EDGE ( 'NONE', *, *, #85, .F. ) ;
#126 = ADVANCED_FACE ( 'NONE', ( #90 ), #3, .F. ) ;
#127 =( LENGTH_UNIT ( ) NAMED_UNIT ( * ) SI_UNIT ( .MILLI., .METRE. ) );
#128 = LOCAL_TIME ( 13, 23, 50.00000000000000000, #211 ) ;
#129 = APPROVAL_DATE_TIME ( #120, #51 ) ;
#130 = CALENDAR_DATE ( 2021, 1, 11 ) ;
#131 = DIRECTION ( 'NONE',  ( 3.491481338843133355E-15, -1.227517819005651059E-16, 1.000000000000000000 ) ) ;
#132 = APPROVAL_ROLE ( '' ) ;
#133 = CIRCLE ( 'NONE', #79, 0.8499999999999987566 ) ;
#134 = APPROVAL_STATUS ( 'not_yet_approved' ) ;
#135 = CIRCLE ( 'NONE', #75, 0.8500000000000007550 ) ;
#136 = DIRECTION ( 'NONE',  ( -3.491481338843133355E-15, 1.227517819005651059E-16, -1.000000000000000000 ) ) ;
#137 = DIRECTION ( 'NONE',  ( 3.491481338843133355E-15, -1.224646799147353207E-16, 1.000000000000000000 ) ) ;
#138 = PRODUCT_RELATED_PRODUCT_CATEGORY ( 'detail', '', ( #181 ) ) ;
#139 = FACE_OUTER_BOUND ( 'NONE', #223, .T. ) ;
#140 = DIRECTION ( 'NONE',  ( -3.491481338843133355E-15, 1.224646799147353207E-16, -1.000000000000000000 ) ) ;
#141 = FACE_OUTER_BOUND ( 'NONE', #193, .T. ) ;
#142 = APPROVAL ( #36, 'UNSPECIFIED' ) ;
#143 = MANIFOLD_SOLID_BREP ( 'Corps-Déplacer/Copier1[1]', #209 ) ;
#144 = VERTEX_POINT ( 'NONE', #16 ) ;
#145 = AXIS2_PLACEMENT_3D ( 'NONE', #155, #29, #157 ) ;
#146 = ADVANCED_FACE ( 'NONE', ( #106 ), #175, .F. ) ;
#147 = PRODUCT_DEFINITION_FORMATION_WITH_SPECIFIED_SOURCE ( 'ANY', '', #181, .NOT_KNOWN. ) ;
#148 = PERSON_AND_ORGANIZATION_ROLE ( 'creator' ) ;
#149 = PERSON_AND_ORGANIZATION_ROLE ( 'creator' ) ;
#150 = PERSON_AND_ORGANIZATION ( #151, #217 ) ;
#151 = PERSON ( 'UNSPECIFIED', 'UNSPECIFIED', 'UNSPECIFIED', ('UNSPECIFIED'), ('UNSPECIFIED'), ('UNSPECIFIED') ) ;
#152 = APPROVAL_PERSON_ORGANIZATION ( #116, #51, #57 ) ;
#153 = ADVANCED_FACE ( 'NONE', ( #93, #141 ), #53, .F. ) ;
#154 = PERSON_AND_ORGANIZATION ( #151, #217 ) ;
#155 = CARTESIAN_POINT ( 'NONE',  ( 1.326762908760390423E-13, -4.653657836759941941E-15, 38.00000000000000000 ) ) ;
#156 = CC_DESIGN_PERSON_AND_ORGANIZATION_ASSIGNMENT ( #150, #149, ( #15 ) ) ;
#157 = DIRECTION ( 'NONE',  ( 0.0000000000000000000, 1.000000000000000000, 0.0000000000000000000 ) ) ;
#158 = CARTESIAN_POINT ( 'NONE',  ( -6.413731847436034514E-31, 0.0000000000000000000, -1.836965810494968570E-16 ) ) ;
#159 = FACE_OUTER_BOUND ( 'NONE', #190, .T. ) ;
#160 = EDGE_CURVE ( 'NONE', #186, #186, #135, .T. ) ;
#161 = ORIENTED_EDGE ( 'NONE', *, *, #160, .F. ) ;
#162 = CYLINDRICAL_SURFACE ( 'NONE', #176, 1.499999999999994893 ) ;
#163 = CARTESIAN_POINT ( 'NONE',  ( 1.326762908760390423E-13, -4.653657836759941941E-15, 38.00000000000000000 ) ) ;
#164 = CARTESIAN_POINT ( 'NONE',  ( 1.780655482809997380E-14, -0.8500000000000013101, 5.099999999999998757 ) ) ;
#165 = VERTEX_POINT ( 'NONE', #48 ) ;
#166 = AXIS2_PLACEMENT_3D ( 'NONE', #213, #37, #114 ) ;
#167 = CALENDAR_DATE ( 2021, 1, 11 ) ;
#168 = EDGE_LOOP ( 'NONE', ( #50 ) ) ;
#169 = APPROVAL_ROLE ( '' ) ;
#170 = APPLICATION_PROTOCOL_DEFINITION ( 'international standard', 'config_control_design', 1994, #203 ) ;
#171 = AXIS2_PLACEMENT_3D ( 'NONE', #59, #70, #180 ) ;
#172 = EDGE_LOOP ( 'NONE', ( #214 ) ) ;
#173 = COORDINATED_UNIVERSAL_TIME_OFFSET ( 1, 0, .AHEAD. ) ;
#174 = FACE_OUTER_BOUND ( 'NONE', #25, .T. ) ;
#175 = PLANE ( 'NONE',  #200 ) ;
#176 = AXIS2_PLACEMENT_3D ( 'NONE', #27, #92, #109 ) ;
#177 = EDGE_CURVE ( 'NONE', #144, #144, #210, .T. ) ;
#178 = VERTEX_POINT ( 'NONE', #164 ) ;
#179 = DIRECTION ( 'NONE',  ( 4.275831445896958607E-31, 1.000000000000000000, 1.224646799147353207E-16 ) ) ;
#180 = DIRECTION ( 'NONE',  ( -4.275831445896958607E-31, -1.000000000000000000, -1.224646799147353207E-16 ) ) ;
#181 = PRODUCT ( '67283', '67283', '', ( #102 ) ) ;
#182 = DIRECTION ( 'NONE',  ( 0.0000000000000000000, 1.000000000000000000, 0.0000000000000000000 ) ) ;
#183 = AXIS2_PLACEMENT_3D ( 'NONE', #163, #140, #124 ) ;
#184 = VERTEX_POINT ( 'NONE', #13 ) ;
#185 = CC_DESIGN_APPROVAL ( #51, ( #97 ) ) ;
#186 = VERTEX_POINT ( 'NONE', #17 ) ;
#187 = APPLICATION_CONTEXT ( 'configuration controlled 3d designs of mechanical parts and assemblies' ) ;
#188 = PERSON_AND_ORGANIZATION_ROLE ( 'design_owner' ) ;
#189 = EDGE_LOOP ( 'NONE', ( #125 ) ) ;
#190 = EDGE_LOOP ( 'NONE', ( #117 ) ) ;
#191 = ADVANCED_FACE ( 'NONE', ( #159, #32 ), #60, .T. ) ;
#192 = APPROVAL_DATE_TIME ( #208, #142 ) ;
#193 = EDGE_LOOP ( 'NONE', ( #65 ) ) ;
#194 =( GEOMETRIC_REPRESENTATION_CONTEXT ( 3 ) GLOBAL_UNCERTAINTY_ASSIGNED_CONTEXT ( ( #91 ) ) GLOBAL_UNIT_ASSIGNED_CONTEXT ( ( #127, #205, #221 ) ) REPRESENTATION_CONTEXT ( 'NONE', 'WORKASPACE' ) );
#195 = DIRECTION ( 'NONE',  ( 3.491481338843133355E-15, -1.224646799147353207E-16, 1.000000000000000000 ) ) ;
#196 = EDGE_CURVE ( 'NONE', #184, #184, #86, .T. ) ;
#197 = DIRECTION ( 'NONE',  ( -3.491481338843133355E-15, 1.224646799147353207E-16, -1.000000000000000000 ) ) ;
#198 = DIRECTION ( 'NONE',  ( 3.491481338843133355E-15, -1.227517819005651059E-16, 1.000000000000000000 ) ) ;
#199 = CONICAL_SURFACE ( 'NONE', #183, 1.199999999999996403, 0.7853981633974461696 ) ;
#200 = AXIS2_PLACEMENT_3D ( 'NONE', #45, #195, #112 ) ;
#201 = CARTESIAN_POINT ( 'NONE',  ( 1.326762908760390423E-13, 8.998558695971051224E-33, 38.00000000000000000 ) ) ;
#202 = DIRECTION ( 'NONE',  ( 0.0000000000000000000, -1.000000000000000000, 0.0000000000000000000 ) ) ;
#203 = APPLICATION_CONTEXT ( 'configuration controlled 3d designs of mechanical parts and assemblies' ) ;
#204 = EDGE_LOOP ( 'NONE', ( #115 ) ) ;
#205 =( NAMED_UNIT ( * ) PLANE_ANGLE_UNIT ( ) SI_UNIT ( $, .RADIAN. ) );
#206 = LOCAL_TIME ( 13, 23, 50.00000000000000000, #173 ) ;
#207 = CC_DESIGN_PERSON_AND_ORGANIZATION_ASSIGNMENT ( #101, #148, ( #147 ) ) ;
#208 = DATE_AND_TIME ( #130, #128 ) ;
#209 = CLOSED_SHELL ( 'NONE', ( #77, #55, #49, #153, #126 ) ) ;
#210 = CIRCLE ( 'NONE', #10, 1.499999999999994893 ) ;
#211 = COORDINATED_UNIVERSAL_TIME_OFFSET ( 1, 0, .AHEAD. ) ;
#212 = COORDINATED_UNIVERSAL_TIME_OFFSET ( 1, 0, .AHEAD. ) ;
#213 = CARTESIAN_POINT ( 'NONE',  ( 0.0000000000000000000, 0.0000000000000000000, 0.0000000000000000000 ) ) ;
#214 = ORIENTED_EDGE ( 'NONE', *, *, #160, .T. ) ;
#215 = LOCAL_TIME ( 13, 23, 50.00000000000000000, #68 ) ;
#216 = DIRECTION ( 'NONE',  ( 3.491481338843133355E-15, -1.227517819005651059E-16, 1.000000000000000000 ) ) ;
#217 = ORGANIZATION ( 'UNSPECIFIED', 'UNSPECIFIED', '' ) ;
#218 = DIRECTION ( 'NONE',  ( -4.275831445896958607E-31, -1.000000000000000000, -1.224646799147353207E-16 ) ) ;
#219 = ADVANCED_FACE ( 'NONE', ( #9 ), #72, .T. ) ;
#220 = MANIFOLD_SOLID_BREP ( 'Corps-Déplacer/Copier1[2]', #8 ) ;
#221 =( NAMED_UNIT ( * ) SI_UNIT ( $, .STERADIAN. ) SOLID_ANGLE_UNIT ( ) );
#222 = CALENDAR_DATE ( 2021, 1, 11 ) ;
#223 = EDGE_LOOP ( 'NONE', ( #88 ) ) ;
ENDSEC;
END-ISO-10303-21;
