ISO-10303-21;
HEADER;
FILE_DESCRIPTION (( 'STEP AP203' ),
    '1' );
FILE_NAME ('67277.step',
    '2021-11-01T12:23:50',
    ( '' ),
    ( '' ),
    'SwSTEP 2.0',
    'SolidWorks 2019',
    '' );
FILE_SCHEMA (( 'CONFIG_CONTROL_DESIGN' ));
ENDSEC;

DATA;
#1 = APPROVAL_PERSON_ORGANIZATION ( #88, #94, #167 ) ;
#2 = CARTESIAN_POINT ( 'NONE',  ( 1.326762908760390423E-13, 8.998558695971051224E-33, 38.00000000000000000 ) ) ;
#3 = PERSON_AND_ORGANIZATION_ROLE ( 'classification_officer' ) ;
#4 = EDGE_LOOP ( 'NONE', ( #107 ) ) ;
#5 = CC_DESIGN_PERSON_AND_ORGANIZATION_ASSIGNMENT ( #110, #37, ( #194 ) ) ;
#6 = CC_DESIGN_DATE_AND_TIME_ASSIGNMENT ( #123, #195, ( #48 ) ) ;
#7 = DATE_AND_TIME ( #148, #81 ) ;
#8 = ADVANCED_FACE ( 'NONE', ( #113, #60 ), #42, .T. ) ;
#9 = AXIS2_PLACEMENT_3D ( 'NONE', #139, #217, #201 ) ;
#10 = FACE_BOUND ( 'NONE', #89, .T. ) ;
#11 = EDGE_CURVE ( 'NONE', #157, #157, #108, .T. ) ;
#12 = DIRECTION ( 'NONE',  ( 3.491481338843133355E-15, -1.224646799147353207E-16, 1.000000000000000000 ) ) ;
#13 = APPLICATION_PROTOCOL_DEFINITION ( 'international standard', 'config_control_design', 1994, #92 ) ;
#14 = PERSON_AND_ORGANIZATION ( #165, #174 ) ;
#15 = CARTESIAN_POINT ( 'NONE',  ( 1.326762908760390423E-13, 1.199999999999991962, 38.00000000000000000 ) ) ;
#16 = PERSON_AND_ORGANIZATION ( #165, #174 ) ;
#17 = CARTESIAN_POINT ( 'NONE',  ( 2.444036937190193033E-14, -1.150000000000001688, 6.999999999999999112 ) ) ;
#18 = CARTESIAN_POINT ( 'NONE',  ( -6.413731847436034514E-31, 0.0000000000000000000, -1.836965810494968570E-16 ) ) ;
#19 = CARTESIAN_POINT ( 'NONE',  ( 3.261185306359188273E-14, 1.499999999999994671, 9.340405947693676936 ) ) ;
#20 = ORIENTED_EDGE ( 'NONE', *, *, #11, .F. ) ;
#21 = ORIENTED_EDGE ( 'NONE', *, *, #170, .F. ) ;
#22 = APPROVAL_ROLE ( '' ) ;
#23 = ADVANCED_FACE ( 'NONE', ( #24, #10 ), #62, .T. ) ;
#24 = FACE_OUTER_BOUND ( 'NONE', #188, .T. ) ;
#25 = AXIS2_PLACEMENT_3D ( 'NONE', #219, #69, #164 ) ;
#26 = CARTESIAN_POINT ( 'NONE',  ( 2.444036937190193349E-14, 1.124819836996386774E-32, 7.000000000000000000 ) ) ;
#27 = PLANE ( 'NONE',  #109 ) ;
#28 = CIRCLE ( 'NONE', #169, 1.150000000000000799 ) ;
#29 = FACE_OUTER_BOUND ( 'NONE', #4, .T. ) ;
#30 = VERTEX_POINT ( 'NONE', #19 ) ;
#31 = DATE_TIME_ROLE ( 'classification_date' ) ;
#32 = DIRECTION ( 'NONE',  ( 3.491481338843133355E-15, -1.227517819005651059E-16, 1.000000000000000000 ) ) ;
#33 = CIRCLE ( 'NONE', #9, 1.499999999999994893 ) ;
#34 = CC_DESIGN_SECURITY_CLASSIFICATION ( #127, ( #187 ) ) ;
#35 = DIRECTION ( 'NONE',  ( -4.285855558155653280E-31, -1.000000000000000000, -1.227517819005651305E-16 ) ) ;
#36 = UNCERTAINTY_MEASURE_WITH_UNIT (LENGTH_MEASURE( 1.000000000000000082E-05 ), #86, 'distance_accuracy_value', 'NONE');
#37 = PERSON_AND_ORGANIZATION_ROLE ( 'design_owner' ) ;
#38 = CC_DESIGN_APPROVAL ( #64, ( #127 ) ) ;
#39 = APPROVAL_STATUS ( 'not_yet_approved' ) ;
#40 = APPLICATION_CONTEXT ( 'configuration controlled 3d designs of mechanical parts and assemblies' ) ;
#41 = DIRECTION ( 'NONE',  ( -3.491481338843133355E-15, 1.224646799147353207E-16, -1.000000000000000000 ) ) ;
#42 = CYLINDRICAL_SURFACE ( 'NONE', #203, 1.499999999999994893 ) ;
#43 = AXIS2_PLACEMENT_3D ( 'NONE', #73, #209, #208 ) ;
#44 =( GEOMETRIC_REPRESENTATION_CONTEXT ( 3 ) GLOBAL_UNCERTAINTY_ASSIGNED_CONTEXT ( ( #36 ) ) GLOBAL_UNIT_ASSIGNED_CONTEXT ( ( #86, #116, #184 ) ) REPRESENTATION_CONTEXT ( 'NONE', 'WORKASPACE' ) );
#45 = CALENDAR_DATE ( 2021, 1, 11 ) ;
#46 = DIRECTION ( 'NONE',  ( 0.0000000000000000000, -1.000000000000000000, 0.0000000000000000000 ) ) ;
#47 = DIRECTION ( 'NONE',  ( 3.491481338843133355E-15, -1.227517819005651059E-16, 1.000000000000000000 ) ) ;
#48 = PRODUCT_DEFINITION ( 'UNKNOWN', '', #187, #166 ) ;
#49 = DIRECTION ( 'NONE',  ( -4.285855558155654155E-31, -1.000000000000000000, -1.227517819005651305E-16 ) ) ;
#50 = LOCAL_TIME ( 13, 23, 50.00000000000000000, #54 ) ;
#51 = APPROVAL_STATUS ( 'not_yet_approved' ) ;
#52 = EDGE_LOOP ( 'NONE', ( #150 ) ) ;
#53 = ORIENTED_EDGE ( 'NONE', *, *, #218, .T. ) ;
#54 = COORDINATED_UNIVERSAL_TIME_OFFSET ( 1, 0, .AHEAD. ) ;
#55 = CIRCLE ( 'NONE', #25, 1.150000000000000799 ) ;
#56 = ORIENTED_EDGE ( 'NONE', *, *, #70, .F. ) ;
#57 = ORIENTED_EDGE ( 'NONE', *, *, #11, .T. ) ;
#58 = PERSON_AND_ORGANIZATION ( #165, #174 ) ;
#59 = AXIS2_PLACEMENT_3D ( 'NONE', #140, #206, #180 ) ;
#60 = FACE_OUTER_BOUND ( 'NONE', #145, .T. ) ;
#61 = FACE_OUTER_BOUND ( 'NONE', #111, .T. ) ;
#62 = CONICAL_SURFACE ( 'NONE', #185, 1.199999999999996403, 0.7853981633974461696 ) ;
#63 = FACE_OUTER_BOUND ( 'NONE', #144, .T. ) ;
#64 = APPROVAL ( #163, 'UNSPECIFIED' ) ;
#65 = FACE_OUTER_BOUND ( 'NONE', #96, .T. ) ;
#66 = CARTESIAN_POINT ( 'NONE',  ( 2.444036937190193033E-14, -1.150000000000001688, 6.999999999999999112 ) ) ;
#67 = MANIFOLD_SOLID_BREP ( 'Corps-Déplacer/Copier1[2]', #114 ) ;
#68 = AXIS2_PLACEMENT_3D ( 'NONE', #2, #98, #177 ) ;
#69 = DIRECTION ( 'NONE',  ( 3.491481338843133355E-15, -1.227517819005651059E-16, 1.000000000000000000 ) ) ;
#70 = EDGE_CURVE ( 'NONE', #30, #30, #33, .T. ) ;
#71 = FACE_OUTER_BOUND ( 'NONE', #191, .T. ) ;
#72 = APPLICATION_PROTOCOL_DEFINITION ( 'international standard', 'config_control_design', 1994, #40 ) ;
#73 = CARTESIAN_POINT ( 'NONE',  ( 0.0000000000000000000, 0.0000000000000000000, 0.0000000000000000000 ) ) ;
#74 = ORIENTED_EDGE ( 'NONE', *, *, #216, .T. ) ;
#75 = APPROVAL_DATE_TIME ( #134, #94 ) ;
#76 = PRODUCT_DEFINITION_SHAPE ( 'NONE', 'NONE',  #48 ) ;
#77 = PERSON_AND_ORGANIZATION ( #165, #174 ) ;
#78 = CIRCLE ( 'NONE', #131, 1.149999999999999023 ) ;
#79 = APPROVAL_DATE_TIME ( #7, #160 ) ;
#80 = CC_DESIGN_PERSON_AND_ORGANIZATION_ASSIGNMENT ( #210, #93, ( #48 ) ) ;
#81 = LOCAL_TIME ( 13, 23, 50.00000000000000000, #95 ) ;
#82 = DIRECTION ( 'NONE',  ( -3.491481338843133355E-15, 1.224646799147353207E-16, -1.000000000000000000 ) ) ;
#83 = ADVANCED_FACE ( 'NONE', ( #61 ), #199, .T. ) ;
#84 = FACE_OUTER_BOUND ( 'NONE', #52, .T. ) ;
#85 = COORDINATED_UNIVERSAL_TIME_OFFSET ( 1, 0, .AHEAD. ) ;
#86 =( LENGTH_UNIT ( ) NAMED_UNIT ( * ) SI_UNIT ( .MILLI., .METRE. ) );
#87 = SECURITY_CLASSIFICATION_LEVEL ( 'unclassified' ) ;
#88 = PERSON_AND_ORGANIZATION ( #165, #174 ) ;
#89 = EDGE_LOOP ( 'NONE', ( #57 ) ) ;
#90 = LOCAL_TIME ( 13, 23, 50.00000000000000000, #183 ) ;
#91 = CALENDAR_DATE ( 2021, 1, 11 ) ;
#92 = APPLICATION_CONTEXT ( 'configuration controlled 3d designs of mechanical parts and assemblies' ) ;
#93 = PERSON_AND_ORGANIZATION_ROLE ( 'creator' ) ;
#94 = APPROVAL ( #51, 'UNSPECIFIED' ) ;
#95 = COORDINATED_UNIVERSAL_TIME_OFFSET ( 1, 0, .AHEAD. ) ;
#96 = EDGE_LOOP ( 'NONE', ( #20 ) ) ;
#97 = CARTESIAN_POINT ( 'NONE',  ( 1.326762908760390423E-13, -4.653657836759941941E-15, 38.00000000000000000 ) ) ;
#98 = DIRECTION ( 'NONE',  ( -3.491481338843133355E-15, 1.224646799147353207E-16, -1.000000000000000000 ) ) ;
#99 = VERTEX_POINT ( 'NONE', #159 ) ;
#100 = CARTESIAN_POINT ( 'NONE',  ( 1.316288464743861212E-13, -4.616918432785521081E-15, 37.69999999999999574 ) ) ;
#101 = ADVANCED_FACE ( 'NONE', ( #176 ), #27, .F. ) ;
#102 = DATE_AND_TIME ( #45, #90 ) ;
#103 = AXIS2_PLACEMENT_3D ( 'NONE', #215, #41, #173 ) ;
#104 = APPROVAL_PERSON_ORGANIZATION ( #16, #64, #207 ) ;
#105 = CARTESIAN_POINT ( 'NONE',  ( 2.444036937190193033E-14, -8.592624733039555931E-16, 6.999999999999999112 ) ) ;
#106 = CC_DESIGN_PERSON_AND_ORGANIZATION_ASSIGNMENT ( #58, #149, ( #187 ) ) ;
#107 = ORIENTED_EDGE ( 'NONE', *, *, #133, .T. ) ;
#108 = CIRCLE ( 'NONE', #103, 1.199999999999996403 ) ;
#109 = AXIS2_PLACEMENT_3D ( 'NONE', #155, #12, #161 ) ;
#110 = PERSON_AND_ORGANIZATION ( #165, #174 ) ;
#111 = EDGE_LOOP ( 'NONE', ( #53 ) ) ;
#112 = CC_DESIGN_APPROVAL ( #94, ( #48 ) ) ;
#113 = FACE_OUTER_BOUND ( 'NONE', #147, .T. ) ;
#114 = CLOSED_SHELL ( 'NONE', ( #83, #179, #101 ) ) ;
#115 = DIRECTION ( 'NONE',  ( -4.275831445896958607E-31, -1.000000000000000000, -1.224646799147353207E-16 ) ) ;
#116 =( NAMED_UNIT ( * ) PLANE_ANGLE_UNIT ( ) SI_UNIT ( $, .RADIAN. ) );
#117 = CALENDAR_DATE ( 2021, 1, 11 ) ;
#118 = CARTESIAN_POINT ( 'NONE',  ( -1.070110634383986150E-30, 1.507334016807279139E-32, -3.064918670705415945E-16 ) ) ;
#119 = CIRCLE ( 'NONE', #193, 1.499999999999996669 ) ;
#120 = SHAPE_DEFINITION_REPRESENTATION ( #76, #151 ) ;
#121 = CYLINDRICAL_SURFACE ( 'NONE', #137, 1.149999999999999911 ) ;
#122 = DIRECTION ( 'NONE',  ( -3.491481338843133355E-15, 1.224646799147353207E-16, -1.000000000000000000 ) ) ;
#123 = DATE_AND_TIME ( #146, #50 ) ;
#124 = ORIENTED_EDGE ( 'NONE', *, *, #170, .T. ) ;
#125 = PERSON_AND_ORGANIZATION_ROLE ( 'design_supplier' ) ;
#126 = PRODUCT_RELATED_PRODUCT_CATEGORY ( 'detail', '', ( #194 ) ) ;
#127 = SECURITY_CLASSIFICATION ( '', '', #87 ) ;
#128 = DIRECTION ( 'NONE',  ( 0.0000000000000000000, 1.000000000000000000, 0.0000000000000000000 ) ) ;
#129 = DIRECTION ( 'NONE',  ( 3.491481338843133355E-15, -1.227517819005651059E-16, 1.000000000000000000 ) ) ;
#130 = DIRECTION ( 'NONE',  ( 0.0000000000000000000, 1.000000000000000000, 0.0000000000000000000 ) ) ;
#131 = AXIS2_PLACEMENT_3D ( 'NONE', #118, #47, #49 ) ;
#132 = VERTEX_POINT ( 'NONE', #17 ) ;
#133 = EDGE_CURVE ( 'NONE', #221, #221, #28, .T. ) ;
#134 = DATE_AND_TIME ( #91, #136 ) ;
#135 = ADVANCED_FACE ( 'NONE', ( #186 ), #143, .F. ) ;
#136 = LOCAL_TIME ( 13, 23, 50.00000000000000000, #192 ) ;
#137 = AXIS2_PLACEMENT_3D ( 'NONE', #18, #129, #35 ) ;
#138 = ORIENTED_EDGE ( 'NONE', *, *, #133, .F. ) ;
#139 = CARTESIAN_POINT ( 'NONE',  ( 3.261185306359188273E-14, -2.872890004500795731E-16, 9.340405947693676936 ) ) ;
#140 = CARTESIAN_POINT ( 'NONE',  ( 2.444036937190193349E-14, 1.124819836996386774E-32, 7.000000000000000000 ) ) ;
#141 = CARTESIAN_POINT ( 'NONE',  ( -1.562984023571886067E-30, -1.149999999999999023, -4.476564162561913898E-16 ) ) ;
#142 = DIRECTION ( 'NONE',  ( 3.491481338843133355E-15, -1.227517819005651059E-16, 1.000000000000000000 ) ) ;
#143 = PLANE ( 'NONE',  #59 ) ;
#144 = EDGE_LOOP ( 'NONE', ( #213 ) ) ;
#145 = EDGE_LOOP ( 'NONE', ( #56 ) ) ;
#146 = CALENDAR_DATE ( 2021, 1, 11 ) ;
#147 = EDGE_LOOP ( 'NONE', ( #74 ) ) ;
#148 = CALENDAR_DATE ( 2021, 1, 11 ) ;
#149 = PERSON_AND_ORGANIZATION_ROLE ( 'creator' ) ;
#150 = ORIENTED_EDGE ( 'NONE', *, *, #70, .T. ) ;
#151 = ADVANCED_BREP_SHAPE_REPRESENTATION ( '67277', ( #220, #67, #43 ), #44 ) ;
#152 = ADVANCED_FACE ( 'NONE', ( #65 ), #223, .F. ) ;
#153 = DIRECTION ( 'NONE',  ( -3.491481338843133355E-15, 1.224646799147353207E-16, -1.000000000000000000 ) ) ;
#154 = DIRECTION ( 'NONE',  ( 3.491481338843133355E-15, -1.224646799147353207E-16, 1.000000000000000000 ) ) ;
#155 = CARTESIAN_POINT ( 'NONE',  ( -8.551680453529350800E-31, 2.999525725151307090E-32, -2.449298628175645296E-16 ) ) ;
#156 = AXIS2_PLACEMENT_3D ( 'NONE', #182, #32, #202 ) ;
#157 = VERTEX_POINT ( 'NONE', #15 ) ;
#158 = APPROVAL_DATE_TIME ( #178, #64 ) ;
#159 = CARTESIAN_POINT ( 'NONE',  ( 1.316288464743861212E-13, 1.499999999999992228, 37.69999999999999574 ) ) ;
#160 = APPROVAL ( #39, 'UNSPECIFIED' ) ;
#161 = DIRECTION ( 'NONE',  ( -4.275831445896958607E-31, -1.000000000000000000, -1.224646799147353207E-16 ) ) ;
#162 = CC_DESIGN_APPROVAL ( #160, ( #187 ) ) ;
#163 = APPROVAL_STATUS ( 'not_yet_approved' ) ;
#164 = DIRECTION ( 'NONE',  ( 0.0000000000000000000, -1.000000000000000000, 0.0000000000000000000 ) ) ;
#165 = PERSON ( 'UNSPECIFIED', 'UNSPECIFIED', 'UNSPECIFIED', ('UNSPECIFIED'), ('UNSPECIFIED'), ('UNSPECIFIED') ) ;
#166 = DESIGN_CONTEXT ( 'detailed design', #40, 'design' ) ;
#167 = APPROVAL_ROLE ( '' ) ;
#168 = CLOSED_SHELL ( 'NONE', ( #8, #23, #152, #212, #135 ) ) ;
#169 = AXIS2_PLACEMENT_3D ( 'NONE', #105, #142, #46 ) ;
#170 = EDGE_CURVE ( 'NONE', #205, #205, #78, .T. ) ;
#171 = ORIENTED_EDGE ( 'NONE', *, *, #216, .F. ) ;
#172 = APPROVAL_PERSON_ORGANIZATION ( #77, #160, #22 ) ;
#173 = DIRECTION ( 'NONE',  ( 0.0000000000000000000, 1.000000000000000000, 0.0000000000000000000 ) ) ;
#174 = ORGANIZATION ( 'UNSPECIFIED', 'UNSPECIFIED', '' ) ;
#175 = DIRECTION ( 'NONE',  ( 4.275831445896958607E-31, 1.000000000000000000, 1.224646799147353207E-16 ) ) ;
#176 = FACE_OUTER_BOUND ( 'NONE', #196, .T. ) ;
#177 = DIRECTION ( 'NONE',  ( 4.275831445896958607E-31, 1.000000000000000000, 1.224646799147353207E-16 ) ) ;
#178 = DATE_AND_TIME ( #117, #204 ) ;
#179 = ADVANCED_FACE ( 'NONE', ( #71, #63 ), #121, .T. ) ;
#180 = DIRECTION ( 'NONE',  ( -4.275831445896958607E-31, -1.000000000000000000, -1.224646799147353207E-16 ) ) ;
#181 = CC_DESIGN_DATE_AND_TIME_ASSIGNMENT ( #102, #31, ( #127 ) ) ;
#182 = CARTESIAN_POINT ( 'NONE',  ( 2.444036937190193033E-14, 0.0000000000000000000, 6.999999999999999112 ) ) ;
#183 = COORDINATED_UNIVERSAL_TIME_OFFSET ( 1, 0, .AHEAD. ) ;
#184 =( NAMED_UNIT ( * ) SI_UNIT ( $, .STERADIAN. ) SOLID_ANGLE_UNIT ( ) );
#185 = AXIS2_PLACEMENT_3D ( 'NONE', #97, #82, #128 ) ;
#186 = FACE_OUTER_BOUND ( 'NONE', #211, .T. ) ;
#187 = PRODUCT_DEFINITION_FORMATION_WITH_SPECIFIED_SOURCE ( 'ANY', '', #194, .NOT_KNOWN. ) ;
#188 = EDGE_LOOP ( 'NONE', ( #171 ) ) ;
#189 = CC_DESIGN_PERSON_AND_ORGANIZATION_ASSIGNMENT ( #14, #3, ( #127 ) ) ;
#190 = MECHANICAL_CONTEXT ( 'NONE', #92, 'mechanical' ) ;
#191 = EDGE_LOOP ( 'NONE', ( #124 ) ) ;
#192 = COORDINATED_UNIVERSAL_TIME_OFFSET ( 1, 0, .AHEAD. ) ;
#193 = AXIS2_PLACEMENT_3D ( 'NONE', #100, #122, #130 ) ;
#194 = PRODUCT ( '67277', '67277', '', ( #190 ) ) ;
#195 = DATE_TIME_ROLE ( 'creation_date' ) ;
#196 = EDGE_LOOP ( 'NONE', ( #21 ) ) ;
#197 = PERSON_AND_ORGANIZATION ( #165, #174 ) ;
#198 = AXIS2_PLACEMENT_3D ( 'NONE', #26, #154, #115 ) ;
#199 = PLANE ( 'NONE',  #198 ) ;
#200 = TOROIDAL_SURFACE ( 'NONE', #156, 9.149999999999998579, 8.000000000000000000 ) ;
#201 = DIRECTION ( 'NONE',  ( 0.0000000000000000000, 1.000000000000000000, 0.0000000000000000000 ) ) ;
#202 = DIRECTION ( 'NONE',  ( -4.347792104868795754E-31, -1.000000000000000000, -1.227517819005651059E-16 ) ) ;
#203 = AXIS2_PLACEMENT_3D ( 'NONE', #214, #153, #175 ) ;
#204 = LOCAL_TIME ( 13, 23, 50.00000000000000000, #85 ) ;
#205 = VERTEX_POINT ( 'NONE', #141 ) ;
#206 = DIRECTION ( 'NONE',  ( 3.491481338843133355E-15, -1.224646799147353207E-16, 1.000000000000000000 ) ) ;
#207 = APPROVAL_ROLE ( '' ) ;
#208 = DIRECTION ( 'NONE',  ( 1.000000000000000000, 0.0000000000000000000, 0.0000000000000000000 ) ) ;
#209 = DIRECTION ( 'NONE',  ( 0.0000000000000000000, 0.0000000000000000000, 1.000000000000000000 ) ) ;
#210 = PERSON_AND_ORGANIZATION ( #165, #174 ) ;
#211 = EDGE_LOOP ( 'NONE', ( #138 ) ) ;
#212 = ADVANCED_FACE ( 'NONE', ( #29, #84 ), #200, .F. ) ;
#213 = ORIENTED_EDGE ( 'NONE', *, *, #218, .F. ) ;
#214 = CARTESIAN_POINT ( 'NONE',  ( 0.0000000000000000000, 0.0000000000000000000, 0.0000000000000000000 ) ) ;
#215 = CARTESIAN_POINT ( 'NONE',  ( 1.326762908760390423E-13, -4.653657836759941941E-15, 38.00000000000000000 ) ) ;
#216 = EDGE_CURVE ( 'NONE', #99, #99, #119, .T. ) ;
#217 = DIRECTION ( 'NONE',  ( -3.491481338843133355E-15, 1.227517819005651059E-16, -1.000000000000000000 ) ) ;
#218 = EDGE_CURVE ( 'NONE', #132, #132, #55, .T. ) ;
#219 = CARTESIAN_POINT ( 'NONE',  ( 2.444036937190193033E-14, -8.592624733039555931E-16, 6.999999999999999112 ) ) ;
#220 = MANIFOLD_SOLID_BREP ( 'Corps-Déplacer/Copier1[1]', #168 ) ;
#221 = VERTEX_POINT ( 'NONE', #66 ) ;
#222 = CC_DESIGN_PERSON_AND_ORGANIZATION_ASSIGNMENT ( #197, #125, ( #187 ) ) ;
#223 = PLANE ( 'NONE',  #68 ) ;
ENDSEC;
END-ISO-10303-21;
