ISO-10303-21;
HEADER;
FILE_DESCRIPTION (( 'STEP AP203' ),
    '1' );
FILE_NAME ('67276.step',
    '2021-11-01T12:23:49',
    ( '' ),
    ( '' ),
    'SwSTEP 2.0',
    'SolidWorks 2019',
    '' );
FILE_SCHEMA (( 'CONFIG_CONTROL_DESIGN' ));
ENDSEC;

DATA;
#1 = AXIS2_PLACEMENT_3D ( 'NONE', #110, #20, #70 ) ;
#2 = ORIENTED_EDGE ( 'NONE', *, *, #113, .F. ) ;
#3 = AXIS2_PLACEMENT_3D ( 'NONE', #69, #64, #188 ) ;
#4 = COORDINATED_UNIVERSAL_TIME_OFFSET ( 1, 0, .AHEAD. ) ;
#5 = EDGE_LOOP ( 'NONE', ( #23 ) ) ;
#6 = SECURITY_CLASSIFICATION ( '', '', #143 ) ;
#7 = COORDINATED_UNIVERSAL_TIME_OFFSET ( 1, 0, .AHEAD. ) ;
#8 = ORIENTED_EDGE ( 'NONE', *, *, #199, .T. ) ;
#9 = PRODUCT_RELATED_PRODUCT_CATEGORY ( 'detail', '', ( #190 ) ) ;
#10 = FACE_OUTER_BOUND ( 'NONE', #91, .T. ) ;
#11 = CONICAL_SURFACE ( 'NONE', #3, 1.199999999999996403, 0.7853981633974461696 ) ;
#12 = DIRECTION ( 'NONE',  ( -4.285855558155652404E-31, -1.000000000000000000, -1.227517819005650812E-16 ) ) ;
#13 = CC_DESIGN_PERSON_AND_ORGANIZATION_ASSIGNMENT ( #100, #99, ( #6 ) ) ;
#14 = DIRECTION ( 'NONE',  ( 0.0000000000000000000, 1.000000000000000000, 0.0000000000000000000 ) ) ;
#15 = DIRECTION ( 'NONE',  ( 3.491481338843133355E-15, -1.224646799147353207E-16, 1.000000000000000000 ) ) ;
#16 = CC_DESIGN_APPROVAL ( #107, ( #172 ) ) ;
#17 = APPLICATION_CONTEXT ( 'configuration controlled 3d designs of mechanical parts and assemblies' ) ;
#18 = VERTEX_POINT ( 'NONE', #159 ) ;
#19 = PLANE ( 'NONE',  #138 ) ;
#20 = DIRECTION ( 'NONE',  ( 3.491481338843133355E-15, -1.227517819005651059E-16, 1.000000000000000000 ) ) ;
#21 = ORIENTED_EDGE ( 'NONE', *, *, #175, .F. ) ;
#22 = ADVANCED_FACE ( 'NONE', ( #36 ), #93, .F. ) ;
#23 = ORIENTED_EDGE ( 'NONE', *, *, #147, .T. ) ;
#24 = DIRECTION ( 'NONE',  ( 1.000000000000000000, 0.0000000000000000000, 0.0000000000000000000 ) ) ;
#25 = CALENDAR_DATE ( 2021, 1, 11 ) ;
#26 = AXIS2_PLACEMENT_3D ( 'NONE', #135, #83, #47 ) ;
#27 = PERSON_AND_ORGANIZATION ( #211, #78 ) ;
#28 = PERSON_AND_ORGANIZATION_ROLE ( 'design_supplier' ) ;
#29 = EDGE_LOOP ( 'NONE', ( #56 ) ) ;
#30 = APPLICATION_CONTEXT ( 'configuration controlled 3d designs of mechanical parts and assemblies' ) ;
#31 = CIRCLE ( 'NONE', #204, 1.099999999999998979 ) ;
#32 = CARTESIAN_POINT ( 'NONE',  ( 0.0000000000000000000, 0.0000000000000000000, 0.0000000000000000000 ) ) ;
#33 = PERSON_AND_ORGANIZATION ( #211, #78 ) ;
#34 = MECHANICAL_CONTEXT ( 'NONE', #17, 'mechanical' ) ;
#35 = DIRECTION ( 'NONE',  ( 0.0000000000000000000, -1.000000000000000000, 0.0000000000000000000 ) ) ;
#36 = FACE_OUTER_BOUND ( 'NONE', #146, .T. ) ;
#37 = COORDINATED_UNIVERSAL_TIME_OFFSET ( 1, 0, .AHEAD. ) ;
#38 = PERSON_AND_ORGANIZATION_ROLE ( 'creator' ) ;
#39 = DESIGN_CONTEXT ( 'detailed design', #30, 'design' ) ;
#40 = ADVANCED_FACE ( 'NONE', ( #182 ), #62, .F. ) ;
#41 = CIRCLE ( 'NONE', #1, 1.099999999999999423 ) ;
#42 = APPROVAL_DATE_TIME ( #77, #126 ) ;
#43 = ORIENTED_EDGE ( 'NONE', *, *, #101, .T. ) ;
#44 = AXIS2_PLACEMENT_3D ( 'NONE', #84, #131, #102 ) ;
#45 = CYLINDRICAL_SURFACE ( 'NONE', #81, 1.499999999999994893 ) ;
#46 = LOCAL_TIME ( 13, 23, 49.00000000000000000, #106 ) ;
#47 = DIRECTION ( 'NONE',  ( 0.0000000000000000000, 1.000000000000000000, 0.0000000000000000000 ) ) ;
#48 = CC_DESIGN_DATE_AND_TIME_ASSIGNMENT ( #61, #98, ( #6 ) ) ;
#49 = PLANE ( 'NONE',  #163 ) ;
#50 = APPROVAL_DATE_TIME ( #207, #160 ) ;
#51 = CC_DESIGN_PERSON_AND_ORGANIZATION_ASSIGNMENT ( #148, #38, ( #172 ) ) ;
#52 =( LENGTH_UNIT ( ) NAMED_UNIT ( * ) SI_UNIT ( .MILLI., .METRE. ) );
#53 = ORIENTED_EDGE ( 'NONE', *, *, #101, .F. ) ;
#54 = CARTESIAN_POINT ( 'NONE',  ( 2.444036937190193033E-14, -1.100000000000000311, 6.999999999999999112 ) ) ;
#55 = AXIS2_PLACEMENT_3D ( 'NONE', #162, #121, #35 ) ;
#56 = ORIENTED_EDGE ( 'NONE', *, *, #94, .T. ) ;
#57 = CALENDAR_DATE ( 2021, 1, 11 ) ;
#58 = APPROVAL_DATE_TIME ( #200, #107 ) ;
#59 = PRODUCT_DEFINITION ( 'UNKNOWN', '', #172, #39 ) ;
#60 = CC_DESIGN_SECURITY_CLASSIFICATION ( #6, ( #172 ) ) ;
#61 = DATE_AND_TIME ( #25, #122 ) ;
#62 = PLANE ( 'NONE',  #44 ) ;
#63 = AXIS2_PLACEMENT_3D ( 'NONE', #87, #181, #24 ) ;
#64 = DIRECTION ( 'NONE',  ( -3.491481338843133355E-15, 1.224646799147353207E-16, -1.000000000000000000 ) ) ;
#65 = DIRECTION ( 'NONE',  ( -4.347973205882576304E-31, -1.000000000000000000, -1.227517819005651059E-16 ) ) ;
#66 = CC_DESIGN_PERSON_AND_ORGANIZATION_ASSIGNMENT ( #27, #28, ( #172 ) ) ;
#67 = DIRECTION ( 'NONE',  ( 4.275831445896958607E-31, 1.000000000000000000, 1.224646799147353207E-16 ) ) ;
#68 = CC_DESIGN_APPROVAL ( #126, ( #6 ) ) ;
#69 = CARTESIAN_POINT ( 'NONE',  ( 1.326762908760390423E-13, -4.653657836759941941E-15, 38.00000000000000000 ) ) ;
#70 = DIRECTION ( 'NONE',  ( 0.0000000000000000000, -1.000000000000000000, 0.0000000000000000000 ) ) ;
#71 = VERTEX_POINT ( 'NONE', #192 ) ;
#72 =( GEOMETRIC_REPRESENTATION_CONTEXT ( 3 ) GLOBAL_UNCERTAINTY_ASSIGNED_CONTEXT ( ( #128 ) ) GLOBAL_UNIT_ASSIGNED_CONTEXT ( ( #52, #73, #75 ) ) REPRESENTATION_CONTEXT ( 'NONE', 'WORKASPACE' ) );
#73 =( NAMED_UNIT ( * ) PLANE_ANGLE_UNIT ( ) SI_UNIT ( $, .RADIAN. ) );
#74 = EDGE_LOOP ( 'NONE', ( #115 ) ) ;
#75 =( NAMED_UNIT ( * ) SI_UNIT ( $, .STERADIAN. ) SOLID_ANGLE_UNIT ( ) );
#76 = ADVANCED_FACE ( 'NONE', ( #117, #103 ), #11, .T. ) ;
#77 = DATE_AND_TIME ( #57, #133 ) ;
#78 = ORGANIZATION ( 'UNSPECIFIED', 'UNSPECIFIED', '' ) ;
#79 = APPROVAL_STATUS ( 'not_yet_approved' ) ;
#80 = CARTESIAN_POINT ( 'NONE',  ( 2.444036937190193033E-14, 0.0000000000000000000, 6.999999999999999112 ) ) ;
#81 = AXIS2_PLACEMENT_3D ( 'NONE', #32, #219, #67 ) ;
#82 = ADVANCED_FACE ( 'NONE', ( #187, #173 ), #85, .T. ) ;
#83 = DIRECTION ( 'NONE',  ( -3.491481338843133355E-15, 1.224646799147353207E-16, -1.000000000000000000 ) ) ;
#84 = CARTESIAN_POINT ( 'NONE',  ( 2.444036937190193349E-14, 1.124819836996386774E-32, 7.000000000000000000 ) ) ;
#85 = CYLINDRICAL_SURFACE ( 'NONE', #193, 1.099999999999999201 ) ;
#86 = CARTESIAN_POINT ( 'NONE',  ( -4.714441113971215455E-31, -5.974282697127038812E-33, -1.350269600906215080E-16 ) ) ;
#87 = CARTESIAN_POINT ( 'NONE',  ( 0.0000000000000000000, 0.0000000000000000000, 0.0000000000000000000 ) ) ;
#88 = APPLICATION_PROTOCOL_DEFINITION ( 'international standard', 'config_control_design', 1994, #30 ) ;
#89 = ADVANCED_FACE ( 'NONE', ( #218 ), #49, .F. ) ;
#90 = VERTEX_POINT ( 'NONE', #139 ) ;
#91 = EDGE_LOOP ( 'NONE', ( #109 ) ) ;
#92 = CARTESIAN_POINT ( 'NONE',  ( 1.326762908760390423E-13, 1.199999999999991962, 38.00000000000000000 ) ) ;
#93 = PLANE ( 'NONE',  #186 ) ;
#94 = EDGE_CURVE ( 'NONE', #71, #71, #96, .T. ) ;
#95 = COORDINATED_UNIVERSAL_TIME_OFFSET ( 1, 0, .AHEAD. ) ;
#96 = CIRCLE ( 'NONE', #137, 1.499999999999994893 ) ;
#97 = CIRCLE ( 'NONE', #26, 1.499999999999996669 ) ;
#98 = DATE_TIME_ROLE ( 'classification_date' ) ;
#99 = PERSON_AND_ORGANIZATION_ROLE ( 'classification_officer' ) ;
#100 = PERSON_AND_ORGANIZATION ( #211, #78 ) ;
#101 = EDGE_CURVE ( 'NONE', #90, #90, #31, .T. ) ;
#102 = DIRECTION ( 'NONE',  ( -4.275831445896958607E-31, -1.000000000000000000, -1.224646799147353207E-16 ) ) ;
#103 = FACE_BOUND ( 'NONE', #209, .T. ) ;
#104 = CIRCLE ( 'NONE', #164, 1.199999999999996403 ) ;
#105 = DIRECTION ( 'NONE',  ( 3.491481338843133355E-15, -1.224646799147353207E-16, 1.000000000000000000 ) ) ;
#106 = COORDINATED_UNIVERSAL_TIME_OFFSET ( 1, 0, .AHEAD. ) ;
#107 = APPROVAL ( #185, 'UNSPECIFIED' ) ;
#108 = CC_DESIGN_APPROVAL ( #160, ( #59 ) ) ;
#109 = ORIENTED_EDGE ( 'NONE', *, *, #94, .F. ) ;
#110 = CARTESIAN_POINT ( 'NONE',  ( 2.444036937190193033E-14, -8.592624733039555931E-16, 6.999999999999999112 ) ) ;
#111 = CC_DESIGN_PERSON_AND_ORGANIZATION_ASSIGNMENT ( #33, #156, ( #190 ) ) ;
#112 = DIRECTION ( 'NONE',  ( 4.275831445896958607E-31, 1.000000000000000000, 1.224646799147353207E-16 ) ) ;
#113 = EDGE_CURVE ( 'NONE', #180, #180, #104, .T. ) ;
#114 = PERSON_AND_ORGANIZATION ( #211, #78 ) ;
#115 = ORIENTED_EDGE ( 'NONE', *, *, #175, .T. ) ;
#116 = ORIENTED_EDGE ( 'NONE', *, *, #113, .T. ) ;
#117 = FACE_OUTER_BOUND ( 'NONE', #215, .T. ) ;
#118 = LOCAL_TIME ( 13, 23, 49.00000000000000000, #37 ) ;
#119 = DIRECTION ( 'NONE',  ( -4.285855558155652404E-31, -1.000000000000000000, -1.227517819005651059E-16 ) ) ;
#120 = FACE_OUTER_BOUND ( 'NONE', #167, .T. ) ;
#121 = DIRECTION ( 'NONE',  ( 3.491481338843133355E-15, -1.227517819005651059E-16, 1.000000000000000000 ) ) ;
#122 = LOCAL_TIME ( 13, 23, 49.00000000000000000, #7 ) ;
#123 = PERSON_AND_ORGANIZATION ( #211, #78 ) ;
#124 = PERSON_AND_ORGANIZATION ( #211, #78 ) ;
#125 = FACE_OUTER_BOUND ( 'NONE', #74, .T. ) ;
#126 = APPROVAL ( #79, 'UNSPECIFIED' ) ;
#127 = CARTESIAN_POINT ( 'NONE',  ( 1.326762908760390423E-13, 8.998558695971051224E-33, 38.00000000000000000 ) ) ;
#128 = UNCERTAINTY_MEASURE_WITH_UNIT (LENGTH_MEASURE( 1.000000000000000082E-05 ), #52, 'distance_accuracy_value', 'NONE');
#129 = PERSON_AND_ORGANIZATION ( #211, #78 ) ;
#130 = EDGE_LOOP ( 'NONE', ( #21 ) ) ;
#131 = DIRECTION ( 'NONE',  ( 3.491481338843133355E-15, -1.224646799147353207E-16, 1.000000000000000000 ) ) ;
#132 = FACE_OUTER_BOUND ( 'NONE', #5, .T. ) ;
#133 = LOCAL_TIME ( 13, 23, 49.00000000000000000, #95 ) ;
#134 = DIRECTION ( 'NONE',  ( -3.491481338843133355E-15, 1.224646799147353207E-16, -1.000000000000000000 ) ) ;
#135 = CARTESIAN_POINT ( 'NONE',  ( 1.316288464743861212E-13, -4.616918432785521081E-15, 37.69999999999999574 ) ) ;
#136 = DIRECTION ( 'NONE',  ( -4.275831445896958607E-31, -1.000000000000000000, -1.224646799147353207E-16 ) ) ;
#137 = AXIS2_PLACEMENT_3D ( 'NONE', #170, #221, #14 ) ;
#138 = AXIS2_PLACEMENT_3D ( 'NONE', #178, #105, #136 ) ;
#139 = CARTESIAN_POINT ( 'NONE',  ( -9.428882227942429157E-31, -1.099999999999998979, -2.700539201812429667E-16 ) ) ;
#140 = CLOSED_SHELL ( 'NONE', ( #216, #82, #89 ) ) ;
#141 = MANIFOLD_SOLID_BREP ( 'Corps-Déplacer/Copier1[1]', #201 ) ;
#142 = CC_DESIGN_PERSON_AND_ORGANIZATION_ASSIGNMENT ( #123, #195, ( #59 ) ) ;
#143 = SECURITY_CLASSIFICATION_LEVEL ( 'unclassified' ) ;
#144 = ORIENTED_EDGE ( 'NONE', *, *, #147, .F. ) ;
#145 = APPROVAL_ROLE ( '' ) ;
#146 = EDGE_LOOP ( 'NONE', ( #2 ) ) ;
#147 = EDGE_CURVE ( 'NONE', #208, #208, #97, .T. ) ;
#148 = PERSON_AND_ORGANIZATION ( #211, #78 ) ;
#149 = DIRECTION ( 'NONE',  ( 3.491481338843133355E-15, -1.227517819005651059E-16, 1.000000000000000000 ) ) ;
#150 = ADVANCED_BREP_SHAPE_REPRESENTATION ( '67276', ( #141, #212, #63 ), #72 ) ;
#151 = APPROVAL_PERSON_ORGANIZATION ( #129, #126, #145 ) ;
#152 = FACE_OUTER_BOUND ( 'NONE', #29, .T. ) ;
#153 = DIRECTION ( 'NONE',  ( 0.0000000000000000000, 1.000000000000000000, 0.0000000000000000000 ) ) ;
#154 = ADVANCED_FACE ( 'NONE', ( #120, #152 ), #179, .F. ) ;
#155 = DIRECTION ( 'NONE',  ( 3.491481338843133355E-15, -1.227517819005651059E-16, 1.000000000000000000 ) ) ;
#156 = PERSON_AND_ORGANIZATION_ROLE ( 'design_owner' ) ;
#157 = APPROVAL_STATUS ( 'not_yet_approved' ) ;
#158 = APPROVAL_PERSON_ORGANIZATION ( #114, #107, #183 ) ;
#159 = CARTESIAN_POINT ( 'NONE',  ( 2.444036937190193033E-14, -1.100000000000000311, 6.999999999999999112 ) ) ;
#160 = APPROVAL ( #157, 'UNSPECIFIED' ) ;
#161 = EDGE_LOOP ( 'NONE', ( #43 ) ) ;
#162 = CARTESIAN_POINT ( 'NONE',  ( 2.444036937190193033E-14, -8.592624733039555931E-16, 6.999999999999999112 ) ) ;
#163 = AXIS2_PLACEMENT_3D ( 'NONE', #171, #15, #205 ) ;
#164 = AXIS2_PLACEMENT_3D ( 'NONE', #220, #134, #153 ) ;
#165 = CC_DESIGN_DATE_AND_TIME_ASSIGNMENT ( #166, #184, ( #59 ) ) ;
#166 = DATE_AND_TIME ( #177, #46 ) ;
#167 = EDGE_LOOP ( 'NONE', ( #8 ) ) ;
#168 = ADVANCED_FACE ( 'NONE', ( #132, #10 ), #45, .T. ) ;
#169 = EDGE_LOOP ( 'NONE', ( #53 ) ) ;
#170 = CARTESIAN_POINT ( 'NONE',  ( 3.316208696091017252E-14, -3.066338529075446355E-16, 9.497999199359345113 ) ) ;
#171 = CARTESIAN_POINT ( 'NONE',  ( -8.551680453529350800E-31, 2.999525725151307090E-32, -2.449298628175645296E-16 ) ) ;
#172 = PRODUCT_DEFINITION_FORMATION_WITH_SPECIFIED_SOURCE ( 'ANY', '', #190, .NOT_KNOWN. ) ;
#173 = FACE_OUTER_BOUND ( 'NONE', #130, .T. ) ;
#174 = CARTESIAN_POINT ( 'NONE',  ( -6.413731847436034514E-31, 0.0000000000000000000, -1.836965810494968570E-16 ) ) ;
#175 = EDGE_CURVE ( 'NONE', #176, #176, #206, .T. ) ;
#176 = VERTEX_POINT ( 'NONE', #54 ) ;
#177 = CALENDAR_DATE ( 2021, 1, 11 ) ;
#178 = CARTESIAN_POINT ( 'NONE',  ( 2.444036937190193349E-14, 1.124819836996386774E-32, 7.000000000000000000 ) ) ;
#179 = TOROIDAL_SURFACE ( 'NONE', #202, 9.099999999999997868, 8.000000000000000000 ) ;
#180 = VERTEX_POINT ( 'NONE', #92 ) ;
#181 = DIRECTION ( 'NONE',  ( 0.0000000000000000000, 0.0000000000000000000, 1.000000000000000000 ) ) ;
#182 = FACE_OUTER_BOUND ( 'NONE', #213, .T. ) ;
#183 = APPROVAL_ROLE ( '' ) ;
#184 = DATE_TIME_ROLE ( 'creation_date' ) ;
#185 = APPROVAL_STATUS ( 'not_yet_approved' ) ;
#186 = AXIS2_PLACEMENT_3D ( 'NONE', #127, #198, #112 ) ;
#187 = FACE_OUTER_BOUND ( 'NONE', #161, .T. ) ;
#188 = DIRECTION ( 'NONE',  ( 0.0000000000000000000, 1.000000000000000000, 0.0000000000000000000 ) ) ;
#189 = APPROVAL_PERSON_ORGANIZATION ( #124, #160, #196 ) ;
#190 = PRODUCT ( '67276', '67276', '', ( #34 ) ) ;
#191 = DIRECTION ( 'NONE',  ( 3.491481338843133355E-15, -1.227517819005651059E-16, 1.000000000000000000 ) ) ;
#192 = CARTESIAN_POINT ( 'NONE',  ( 3.316208696091017252E-14, 1.499999999999994671, 9.497999199359345113 ) ) ;
#193 = AXIS2_PLACEMENT_3D ( 'NONE', #174, #191, #119 ) ;
#194 = PRODUCT_DEFINITION_SHAPE ( 'NONE', 'NONE',  #59 ) ;
#195 = PERSON_AND_ORGANIZATION_ROLE ( 'creator' ) ;
#196 = APPROVAL_ROLE ( '' ) ;
#197 = ORIENTED_EDGE ( 'NONE', *, *, #199, .F. ) ;
#198 = DIRECTION ( 'NONE',  ( -3.491481338843133355E-15, 1.224646799147353207E-16, -1.000000000000000000 ) ) ;
#199 = EDGE_CURVE ( 'NONE', #18, #18, #41, .T. ) ;
#200 = DATE_AND_TIME ( #203, #217 ) ;
#201 = CLOSED_SHELL ( 'NONE', ( #168, #76, #22, #154, #40 ) ) ;
#202 = AXIS2_PLACEMENT_3D ( 'NONE', #80, #149, #65 ) ;
#203 = CALENDAR_DATE ( 2021, 1, 11 ) ;
#204 = AXIS2_PLACEMENT_3D ( 'NONE', #86, #155, #12 ) ;
#205 = DIRECTION ( 'NONE',  ( -4.275831445896958607E-31, -1.000000000000000000, -1.224646799147353207E-16 ) ) ;
#206 = CIRCLE ( 'NONE', #55, 1.099999999999999423 ) ;
#207 = DATE_AND_TIME ( #222, #118 ) ;
#208 = VERTEX_POINT ( 'NONE', #210 ) ;
#209 = EDGE_LOOP ( 'NONE', ( #116 ) ) ;
#210 = CARTESIAN_POINT ( 'NONE',  ( 1.316288464743861212E-13, 1.499999999999992228, 37.69999999999999574 ) ) ;
#211 = PERSON ( 'UNSPECIFIED', 'UNSPECIFIED', 'UNSPECIFIED', ('UNSPECIFIED'), ('UNSPECIFIED'), ('UNSPECIFIED') ) ;
#212 = MANIFOLD_SOLID_BREP ( 'Corps-Déplacer/Copier1[2]', #140 ) ;
#213 = EDGE_LOOP ( 'NONE', ( #197 ) ) ;
#214 = SHAPE_DEFINITION_REPRESENTATION ( #194, #150 ) ;
#215 = EDGE_LOOP ( 'NONE', ( #144 ) ) ;
#216 = ADVANCED_FACE ( 'NONE', ( #125 ), #19, .T. ) ;
#217 = LOCAL_TIME ( 13, 23, 49.00000000000000000, #4 ) ;
#218 = FACE_OUTER_BOUND ( 'NONE', #169, .T. ) ;
#219 = DIRECTION ( 'NONE',  ( -3.491481338843133355E-15, 1.224646799147353207E-16, -1.000000000000000000 ) ) ;
#220 = CARTESIAN_POINT ( 'NONE',  ( 1.326762908760390423E-13, -4.653657836759941941E-15, 38.00000000000000000 ) ) ;
#221 = DIRECTION ( 'NONE',  ( -3.491481338843133355E-15, 1.227517819005651059E-16, -1.000000000000000000 ) ) ;
#222 = CALENDAR_DATE ( 2021, 1, 11 ) ;
#223 = APPLICATION_PROTOCOL_DEFINITION ( 'international standard', 'config_control_design', 1994, #17 ) ;
ENDSEC;
END-ISO-10303-21;
