ISO-10303-21;
HEADER;
FILE_DESCRIPTION (( 'STEP AP214' ),
    '1' );
FILE_NAME ('67274.step',
    '2024-04-04T13:00:07',
    ( '' ),
    ( '' ),
    'SwSTEP 2.0',
    'SolidWorks 2022',
    '' );
FILE_SCHEMA (( 'AUTOMOTIVE_DESIGN' ));
ENDSEC;

DATA;
#1 = CARTESIAN_POINT ( 'NONE',  ( 1.969195475107527465E-13, 2.999999999999992895, 56.40000000000000568 ) ) ;
#2 = DIRECTION ( 'NONE',  ( 1.000000000000000000, 0.000000000000000000, 0.000000000000000000 ) ) ;
#3 = EDGE_LOOP ( 'NONE', ( #332, #299 ) ) ;
#4 = DIRECTION ( 'NONE',  ( 1.000000000000000000, 0.000000000000000000, -3.469446951953617344E-15 ) ) ;
#5 = VERTEX_POINT ( 'NONE', #119 ) ;
#6 = VECTOR ( 'NONE', #134, 999.9999999999998863 ) ;
#7 = AXIS2_PLACEMENT_3D ( 'NONE', #254, #223, #262 ) ;
#8 = UNCERTAINTY_MEASURE_WITH_UNIT (LENGTH_MEASURE( 1.000000000000000082E-05 ), #73, 'distance_accuracy_value', 'NONE');
#9 = ORIENTED_EDGE ( 'NONE', *, *, #55, .F. ) ;
#10 = EDGE_CURVE ( 'NONE', #114, #193, #61, .T. ) ;
#11 =( NAMED_UNIT ( * ) SI_UNIT ( $, .STERADIAN. ) SOLID_ANGLE_UNIT ( ) );
#12 = ORIENTED_EDGE ( 'NONE', *, *, #208, .T. ) ;
#13 = CIRCLE ( 'NONE', #54, 2.499999999999999556 ) ;
#14 = CARTESIAN_POINT ( 'NONE',  ( 4.364351673553916694E-14, 0.000000000000000000, 12.50000000000000000 ) ) ;
#15 = ORIENTED_EDGE ( 'NONE', *, *, #303, .T. ) ;
#16 = AXIS2_PLACEMENT_3D ( 'NONE', #103, #127, #185 ) ;
#17 =( LENGTH_UNIT ( ) NAMED_UNIT ( * ) SI_UNIT ( .MILLI., .METRE. ) );
#18 = VERTEX_POINT ( 'NONE', #334 ) ;
#19 = SURFACE_STYLE_USAGE ( .BOTH. , #259 ) ;
#20 =( NAMED_UNIT ( * ) PLANE_ANGLE_UNIT ( ) SI_UNIT ( $, .RADIAN. ) );
#21 = FACE_OUTER_BOUND ( 'NONE', #33, .T. ) ;
#22 = PLANE ( 'NONE',  #209 ) ;
#23 = ADVANCED_FACE ( 'NONE', ( #204 ), #113, .T. ) ;
#24 = AXIS2_PLACEMENT_3D ( 'NONE', #151, #336, #287 ) ;
#25 =( GEOMETRIC_REPRESENTATION_CONTEXT ( 3 ) GLOBAL_UNCERTAINTY_ASSIGNED_CONTEXT ( ( #220 ) ) GLOBAL_UNIT_ASSIGNED_CONTEXT ( ( #188, #131, #276 ) ) REPRESENTATION_CONTEXT ( 'NONE', 'WORKASPACE' ) );
#26 = DIRECTION ( 'NONE',  ( -3.491481338843133355E-15, 1.224646799147347537E-16, -1.000000000000000000 ) ) ;
#27 = ADVANCED_FACE ( 'NONE', ( #198 ), #164, .T. ) ;
#28 = FACE_OUTER_BOUND ( 'NONE', #63, .T. ) ;
#29 = CLOSED_SHELL ( 'NONE', ( #296, #306, #112, #84, #271, #116, #50, #89 ) ) ;
#30 = DIRECTION ( 'NONE',  ( -3.491481338843133355E-15, 1.224646799147347537E-16, -1.000000000000000000 ) ) ;
#31 = LINE ( 'NONE', #1, #183 ) ;
#32 = AXIS2_PLACEMENT_3D ( 'NONE', #158, #217, #52 ) ;
#33 = EDGE_LOOP ( 'NONE', ( #85, #65 ) ) ;
#34 = DIRECTION ( 'NONE',  ( 2.575717417130364436E-14, -1.000000000000000000, 0.000000000000000000 ) ) ;
#35 = EDGE_LOOP ( 'NONE', ( #96, #15, #71, #111 ) ) ;
#36 = MECHANICAL_DESIGN_GEOMETRIC_PRESENTATION_REPRESENTATION (  '', ( #81 ), #320 ) ;
#37 = CARTESIAN_POINT ( 'NONE',  ( 1.282749433769087582E-30, 2.999999999999999556, 3.673940397442059375E-16 ) ) ;
#38 = ORIENTED_EDGE ( 'NONE', *, *, #105, .T. ) ;
#39 = ORIENTED_EDGE ( 'NONE', *, *, #303, .F. ) ;
#40 = CARTESIAN_POINT ( 'NONE',  ( 4.850031639396099352E-14, 2.999999999999995115, 13.89104270854590162 ) ) ;
#41 = ORIENTED_EDGE ( 'NONE', *, *, #137, .T. ) ;
#42 = AXIS2_PLACEMENT_3D ( 'NONE', #207, #335, #286 ) ;
#43 = ORIENTED_EDGE ( 'NONE', *, *, #245, .F. ) ;
#44 = FILL_AREA_STYLE ('',( #173 ) ) ;
#45 =( NAMED_UNIT ( * ) PLANE_ANGLE_UNIT ( ) SI_UNIT ( $, .RADIAN. ) );
#46 = DIRECTION ( 'NONE',  ( -3.491481338843133355E-15, 1.224646799147353207E-16, -1.000000000000000000 ) ) ;
#47 = EDGE_CURVE ( 'NONE', #141, #195, #327, .T. ) ;
#48 =( NAMED_UNIT ( * ) PLANE_ANGLE_UNIT ( ) SI_UNIT ( $, .RADIAN. ) );
#49 = COLOUR_RGB ( '',1.000000000000000000, 1.000000000000000000, 1.000000000000000000 ) ;
#50 = ADVANCED_FACE ( 'NONE', ( #282 ), #244, .T. ) ;
#51 = DIRECTION ( 'NONE',  ( 3.491481338843133355E-15, -1.224646799147353207E-16, 1.000000000000000000 ) ) ;
#52 = DIRECTION ( 'NONE',  ( 4.275831445896959482E-31, 1.000000000000000000, 1.224646799147353207E-16 ) ) ;
#53 = LINE ( 'NONE', #128, #194 ) ;
#54 = AXIS2_PLACEMENT_3D ( 'NONE', #100, #232, #124 ) ;
#55 = EDGE_CURVE ( 'NONE', #195, #94, #146, .T. ) ;
#56 = VERTEX_POINT ( 'NONE', #269 ) ;
#57 = DIRECTION ( 'NONE',  ( 3.491481338843133355E-15, -1.224646799147353207E-16, 1.000000000000000000 ) ) ;
#58 = VECTOR ( 'NONE', #167, 1000.000000000000000 ) ;
#59 = ORIENTED_EDGE ( 'NONE', *, *, #176, .T. ) ;
#60 = ORIENTED_EDGE ( 'NONE', *, *, #166, .F. ) ;
#61 = LINE ( 'NONE', #37, #210 ) ;
#62 = PRESENTATION_LAYER_ASSIGNMENT (  '', '', ( #165 ) ) ;
#63 = EDGE_LOOP ( 'NONE', ( #93, #312, #88, #281 ) ) ;
#64 = DIRECTION ( 'NONE',  ( 3.491481338843133355E-15, -0.000000000000000000, 1.000000000000000000 ) ) ;
#65 = ORIENTED_EDGE ( 'NONE', *, *, #74, .F. ) ;
#66 = DIRECTION ( 'NONE',  ( 0.000000000000000000, -1.000000000000000000, 0.000000000000000000 ) ) ;
#67 = AXIS2_PLACEMENT_3D ( 'NONE', #341, #191, #319 ) ;
#68 = DIRECTION ( 'NONE',  ( 3.491481338843133355E-15, -0.000000000000000000, 1.000000000000000000 ) ) ;
#69 = CIRCLE ( 'NONE', #171, 2.500000000000000000 ) ;
#70 = AXIS2_PLACEMENT_3D ( 'NONE', #14, #64, #226 ) ;
#71 = ORIENTED_EDGE ( 'NONE', *, *, #196, .T. ) ;
#72 = SURFACE_SIDE_STYLE ('',( #233 ) ) ;
#73 =( LENGTH_UNIT ( ) NAMED_UNIT ( * ) SI_UNIT ( .MILLI., .METRE. ) );
#74 = EDGE_CURVE ( 'NONE', #141, #324, #78, .T. ) ;
#75 = DIRECTION ( 'NONE',  ( 3.491481338843133355E-15, -1.224646799147353207E-16, 1.000000000000000000 ) ) ;
#76 =( GEOMETRIC_REPRESENTATION_CONTEXT ( 3 ) GLOBAL_UNCERTAINTY_ASSIGNED_CONTEXT ( ( #8 ) ) GLOBAL_UNIT_ASSIGNED_CONTEXT ( ( #73, #48, #264 ) ) REPRESENTATION_CONTEXT ( 'NONE', 'WORKASPACE' ) );
#77 = DIRECTION ( 'NONE',  ( 3.491481338843133355E-15, -0.000000000000000000, 1.000000000000000000 ) ) ;
#78 = CIRCLE ( 'NONE', #117, 2.500000000000000000 ) ;
#79 = EDGE_CURVE ( 'NONE', #202, #193, #92, .T. ) ;
#80 = CARTESIAN_POINT ( 'NONE',  ( 4.364351673553916694E-14, -2.500000000000001332, 12.50000000000000000 ) ) ;
#81 = STYLED_ITEM ( 'NONE', ( #331 ), #227 ) ;
#82 = FACE_OUTER_BOUND ( 'NONE', #140, .T. ) ;
#83 = CARTESIAN_POINT ( 'NONE',  ( 4.364351673553916694E-14, 0.000000000000000000, 12.50000000000000000 ) ) ;
#84 = ADVANCED_FACE ( 'NONE', ( #82 ), #323, .T. ) ;
#85 = ORIENTED_EDGE ( 'NONE', *, *, #337, .F. ) ;
#86 = DIRECTION ( 'NONE',  ( 0.000000000000000000, -1.000000000000000000, 0.000000000000000000 ) ) ;
#87 = PRODUCT_CONTEXT ( 'NONE', #135, 'mechanical' ) ;
#88 = ORIENTED_EDGE ( 'NONE', *, *, #129, .T. ) ;
#89 = ADVANCED_FACE ( 'NONE', ( #28 ), #340, .T. ) ;
#90 = ORIENTED_EDGE ( 'NONE', *, *, #240, .F. ) ;
#91 = DIRECTION ( 'NONE',  ( 3.491481338843133355E-15, -1.224646799147353207E-16, 1.000000000000000000 ) ) ;
#92 = CIRCLE ( 'NONE', #318, 2.999999999999996891 ) ;
#93 = ORIENTED_EDGE ( 'NONE', *, *, #105, .F. ) ;
#94 = VERTEX_POINT ( 'NONE', #130 ) ;
#95 = DIRECTION ( 'NONE',  ( -3.491481338843133355E-15, 1.224646799147347537E-16, -1.000000000000000000 ) ) ;
#96 = ORIENTED_EDGE ( 'NONE', *, *, #137, .F. ) ;
#97 = LINE ( 'NONE', #265, #267 ) ;
#98 = MECHANICAL_DESIGN_GEOMETRIC_PRESENTATION_REPRESENTATION (  '', ( #165 ), #214 ) ;
#99 = CARTESIAN_POINT ( 'NONE',  ( 0.000000000000000000, 0.000000000000000000, 0.000000000000000000 ) ) ;
#100 = CARTESIAN_POINT ( 'NONE',  ( 4.364351673553916694E-14, -1.530808498934191521E-15, 12.50000000000000000 ) ) ;
#101 = PRODUCT_DEFINITION_CONTEXT ( 'detailed design', #155, 'design' ) ;
#102 = AXIS2_PLACEMENT_3D ( 'NONE', #330, #51, #86 ) ;
#103 = CARTESIAN_POINT ( 'NONE',  ( 0.000000000000000000, 0.000000000000000000, 0.000000000000000000 ) ) ;
#104 = DIRECTION ( 'NONE',  ( -2.382254525458714314E-15, -0.7071067811865482389, -0.7071067811865469066 ) ) ;
#105 = EDGE_CURVE ( 'NONE', #56, #305, #53, .T. ) ;
#106 = DIRECTION ( 'NONE',  ( 3.491481338843133355E-15, -0.000000000000000000, 1.000000000000000000 ) ) ;
#107 = ORIENTED_EDGE ( 'NONE', *, *, #343, .F. ) ;
#108 = DIRECTION ( 'NONE',  ( -3.491481338843133355E-15, 1.224646799147353207E-16, -1.000000000000000000 ) ) ;
#109 = AXIS2_PLACEMENT_3D ( 'NONE', #246, #57, #295 ) ;
#110 = VECTOR ( 'NONE', #46, 1000.000000000000000 ) ;
#111 = ORIENTED_EDGE ( 'NONE', *, *, #176, .F. ) ;
#112 = ADVANCED_FACE ( 'NONE', ( #297 ), #156, .T. ) ;
#113 = CYLINDRICAL_SURFACE ( 'NONE', #274, 2.499999999999998668 ) ;
#114 = VERTEX_POINT ( 'NONE', #242 ) ;
#115 = ORIENTED_EDGE ( 'NONE', *, *, #47, .F. ) ;
#116 = ADVANCED_FACE ( 'NONE', ( #187 ), #160, .T. ) ;
#117 = AXIS2_PLACEMENT_3D ( 'NONE', #133, #106, #300 ) ;
#118 = ORIENTED_EDGE ( 'NONE', *, *, #129, .F. ) ;
#119 = CARTESIAN_POINT ( 'NONE',  ( 4.640869443451559558E-14, 2.499999999999997780, 12.50000000000000000 ) ) ;
#120 = PLANE ( 'NONE',  #311 ) ;
#121 = CARTESIAN_POINT ( 'NONE',  ( 1.969195475107527465E-13, -6.907007947191072769E-15, 56.40000000000000568 ) ) ;
#122 = CARTESIAN_POINT ( 'NONE',  ( 1.230773259921010218E-13, -3.000000000000006661, 56.40000000000000568 ) ) ;
#123 = PRODUCT_DEFINITION_FORMATION_WITH_SPECIFIED_SOURCE ( 'ANY', '', #251, .NOT_KNOWN. ) ;
#124 = DIRECTION ( 'NONE',  ( 0.000000000000000000, 1.000000000000000000, 0.000000000000000000 ) ) ;
#125 = CIRCLE ( 'NONE', #325, 2.400000000000002132 ) ;
#126 = PRESENTATION_LAYER_ASSIGNMENT (  '', '', ( #238 ) ) ;
#127 = DIRECTION ( 'NONE',  ( -3.491481338843133355E-15, 1.224646799147353207E-16, -1.000000000000000000 ) ) ;
#128 = CARTESIAN_POINT ( 'NONE',  ( 1.972869415504969519E-13, -3.000000000000006661, 56.40000000000000568 ) ) ;
#129 = EDGE_CURVE ( 'NONE', #18, #114, #31, .T. ) ;
#130 = CARTESIAN_POINT ( 'NONE',  ( 2.500000000000041744, 0.000000000000000000, 12.49999999999999289 ) ) ;
#131 =( NAMED_UNIT ( * ) PLANE_ANGLE_UNIT ( ) SI_UNIT ( $, .RADIAN. ) );
#132 = AXIS2_PLACEMENT_3D ( 'NONE', #189, #26, #270 ) ;
#133 = CARTESIAN_POINT ( 'NONE',  ( 0.000000000000000000, 0.000000000000000000, 0.000000000000000000 ) ) ;
#134 = DIRECTION ( 'NONE',  ( 3.285674118869262605E-15, -0.3382550599108817835, 0.9410544694355825746 ) ) ;
#135 = APPLICATION_CONTEXT ( 'automotive_design' ) ;
#136 = ORIENTED_EDGE ( 'NONE', *, *, #245, .T. ) ;
#137 = EDGE_CURVE ( 'NONE', #5, #231, #169, .T. ) ;
#138 = ORIENTED_EDGE ( 'NONE', *, *, #10, .T. ) ;
#139 = UNCERTAINTY_MEASURE_WITH_UNIT (LENGTH_MEASURE( 1.000000000000000082E-05 ), #17, 'distance_accuracy_value', 'NONE');
#140 = EDGE_LOOP ( 'NONE', ( #285, #41 ) ) ;
#141 = VERTEX_POINT ( 'NONE', #293 ) ;
#142 = EDGE_CURVE ( 'NONE', #18, #56, #266, .T. ) ;
#143 = CARTESIAN_POINT ( 'NONE',  ( 1.230773259921010218E-13, -2.999999999999998668, 13.89104270854590162 ) ) ;
#144 = CONICAL_SURFACE ( 'NONE', #42, 2.999999999999999556, 0.7853981633974492782 ) ;
#145 = ORIENTED_EDGE ( 'NONE', *, *, #10, .F. ) ;
#146 = CIRCLE ( 'NONE', #228, 2.499999999999997780 ) ;
#147 = ORIENTED_EDGE ( 'NONE', *, *, #152, .F. ) ;
#148 = SURFACE_STYLE_FILL_AREA ( #44 ) ;
#149 = SURFACE_STYLE_USAGE ( .BOTH. , #308 ) ;
#150 = CARTESIAN_POINT ( 'NONE',  ( 1.990144363140586139E-13, -6.980486755139912911E-15, 57.00000000000000000 ) ) ;
#151 = CARTESIAN_POINT ( 'NONE',  ( 4.850031639396099352E-14, -1.701162098983991758E-15, 13.89104270854590162 ) ) ;
#152 = EDGE_CURVE ( 'NONE', #324, #94, #241, .T. ) ;
#153 = DIRECTION ( 'NONE',  ( -4.275831445896958607E-31, -1.000000000000000000, -1.224646799147353207E-16 ) ) ;
#154 = AXIS2_PLACEMENT_3D ( 'NONE', #159, #30, #34 ) ;
#155 = APPLICATION_CONTEXT ( 'automotive_design' ) ;
#156 = CYLINDRICAL_SURFACE ( 'NONE', #16, 2.999999999999999556 ) ;
#157 = DIRECTION ( 'NONE',  ( 0.000000000000000000, 0.000000000000000000, 1.000000000000000000 ) ) ;
#158 = CARTESIAN_POINT ( 'NONE',  ( 0.000000000000000000, 0.000000000000000000, 0.000000000000000000 ) ) ;
#159 = CARTESIAN_POINT ( 'NONE',  ( 1.969195475107527465E-13, -6.907007947191072769E-15, 56.40000000000000568 ) ) ;
#160 = CYLINDRICAL_SURFACE ( 'NONE', #32, 2.999999999999999556 ) ;
#161 = EDGE_LOOP ( 'NONE', ( #39, #107, #59, #255 ) ) ;
#162 = DIRECTION ( 'NONE',  ( -2.468850131082262583E-15, 0.7071067811865483499, -0.7071067811865465735 ) ) ;
#163 = EDGE_LOOP ( 'NONE', ( #310, #38, #60, #118 ) ) ;
#164 = CYLINDRICAL_SURFACE ( 'NONE', #257, 2.499999999999998668 ) ;
#165 = STYLED_ITEM ( 'NONE', ( #313 ), #225 ) ;
#166 = EDGE_CURVE ( 'NONE', #114, #305, #309, .T. ) ;
#167 = DIRECTION ( 'NONE',  ( 3.491481338843133355E-15, -0.000000000000000000, 1.000000000000000000 ) ) ;
#168 = ORIENTED_EDGE ( 'NONE', *, *, #337, .T. ) ;
#169 = CIRCLE ( 'NONE', #67, 2.499999999999999556 ) ;
#170 = CARTESIAN_POINT ( 'NONE',  ( -2.499999999999954259, 3.061616997868381169E-16, 12.50000000000000888 ) ) ;
#171 = AXIS2_PLACEMENT_3D ( 'NONE', #99, #291, #315 ) ;
#172 = CARTESIAN_POINT ( 'NONE',  ( -2.499999999999955147, 3.061616997868381662E-16, 12.50000000000000888 ) ) ;
#173 = FILL_AREA_STYLE_COLOUR ( '', #316 ) ;
#174 = FILL_AREA_STYLE_COLOUR ( '', #206 ) ;
#175 = EDGE_LOOP ( 'NONE', ( #43, #12, #138, #302 ) ) ;
#176 = EDGE_CURVE ( 'NONE', #231, #202, #243, .T. ) ;
#177 = PRESENTATION_STYLE_ASSIGNMENT (( #19 ) ) ;
#178 = FILL_AREA_STYLE ('',( #230 ) ) ;
#179 = CARTESIAN_POINT ( 'NONE',  ( 4.382727232044382178E-31, 2.500000000000000000, 1.255262969126037093E-16 ) ) ;
#180 = CLOSED_SHELL ( 'NONE', ( #23, #27, #236, #329 ) ) ;
#181 = CARTESIAN_POINT ( 'NONE',  ( 2.500000000000000000, 0.000000000000000000, -8.728703347107833388E-15 ) ) ;
#182 = EDGE_CURVE ( 'NONE', #56, #18, #125, .T. ) ;
#183 = VECTOR ( 'NONE', #162, 1000.000000000000114 ) ;
#184 = LINE ( 'NONE', #317, #110 ) ;
#185 = DIRECTION ( 'NONE',  ( 4.275831445896959482E-31, 1.000000000000000000, 1.224646799147353207E-16 ) ) ;
#186 = PRESENTATION_LAYER_ASSIGNMENT (  '', '', ( #81 ) ) ;
#187 = FACE_OUTER_BOUND ( 'NONE', #175, .T. ) ;
#188 =( LENGTH_UNIT ( ) NAMED_UNIT ( * ) SI_UNIT ( .MILLI., .METRE. ) );
#189 = CARTESIAN_POINT ( 'NONE',  ( 1.969195475107527465E-13, -6.907007947191072769E-15, 56.40000000000000568 ) ) ;
#190 = ORIENTED_EDGE ( 'NONE', *, *, #142, .T. ) ;
#191 = DIRECTION ( 'NONE',  ( -3.491481338843133355E-15, 1.224646799147353207E-16, -1.000000000000000000 ) ) ;
#192 = APPLICATION_PROTOCOL_DEFINITION ( 'draft international standard', 'automotive_design', 1998, #155 ) ;
#193 = VERTEX_POINT ( 'NONE', #40 ) ;
#194 = VECTOR ( 'NONE', #104, 1000.000000000000000 ) ;
#195 = VERTEX_POINT ( 'NONE', #170 ) ;
#196 = EDGE_CURVE ( 'NONE', #193, #202, #216, .T. ) ;
#197 = PRODUCT_DEFINITION_SHAPE ( 'NONE', 'NONE',  #321 ) ;
#198 = FACE_OUTER_BOUND ( 'NONE', #253, .T. ) ;
#199 =( LENGTH_UNIT ( ) NAMED_UNIT ( * ) SI_UNIT ( .MILLI., .METRE. ) );
#200 = ORIENTED_EDGE ( 'NONE', *, *, #47, .T. ) ;
#201 = DIRECTION ( 'NONE',  ( -2.486899575160350651E-14, -1.000000000000000000, 0.000000000000000000 ) ) ;
#202 = VERTEX_POINT ( 'NONE', #143 ) ;
#203 = VECTOR ( 'NONE', #342, 1000.000000000000000 ) ;
#204 = FACE_OUTER_BOUND ( 'NONE', #229, .T. ) ;
#205 = DIRECTION ( 'NONE',  ( 3.491481338843133355E-15, -1.224646799147353207E-16, 1.000000000000000000 ) ) ;
#206 = COLOUR_RGB ( '',1.000000000000000000, 1.000000000000000000, 1.000000000000000000 ) ;
#207 = CARTESIAN_POINT ( 'NONE',  ( 1.969195475107527465E-13, -6.907007947191072769E-15, 56.40000000000000568 ) ) ;
#208 = EDGE_CURVE ( 'NONE', #305, #114, #249, .T. ) ;
#209 = AXIS2_PLACEMENT_3D ( 'NONE', #179, #77, #234 ) ;
#210 = VECTOR ( 'NONE', #288, 1000.000000000000000 ) ;
#211 = CARTESIAN_POINT ( 'NONE',  ( 4.364351673553916694E-14, 2.499999999999997780, 12.50000000000000000 ) ) ;
#212 = CARTESIAN_POINT ( 'NONE',  ( 0.000000000000000000, 0.000000000000000000, 0.000000000000000000 ) ) ;
#213 = DIRECTION ( 'NONE',  ( 3.491481338843133355E-15, -0.000000000000000000, 1.000000000000000000 ) ) ;
#214 =( GEOMETRIC_REPRESENTATION_CONTEXT ( 3 ) GLOBAL_UNCERTAINTY_ASSIGNED_CONTEXT ( ( #278 ) ) GLOBAL_UNIT_ASSIGNED_CONTEXT ( ( #199, #45, #260 ) ) REPRESENTATION_CONTEXT ( 'NONE', 'WORKASPACE' ) );
#215 = DIRECTION ( 'NONE',  ( 4.275831445896958607E-31, 1.000000000000000000, 1.224646799147353207E-16 ) ) ;
#216 = CIRCLE ( 'NONE', #24, 2.999999999999996891 ) ;
#217 = DIRECTION ( 'NONE',  ( -3.491481338843133355E-15, 1.224646799147353207E-16, -1.000000000000000000 ) ) ;
#218 = AXIS2_PLACEMENT_3D ( 'NONE', #212, #157, #2 ) ;
#219 = ORIENTED_EDGE ( 'NONE', *, *, #74, .T. ) ;
#220 = UNCERTAINTY_MEASURE_WITH_UNIT (LENGTH_MEASURE( 1.000000000000000082E-05 ), #188, 'distance_accuracy_value', 'NONE');
#221 = DIRECTION ( 'NONE',  ( 1.000000000000000000, 0.000000000000000000, -3.469446951953616161E-15 ) ) ;
#222 = ORIENTED_EDGE ( 'NONE', *, *, #182, .T. ) ;
#223 = DIRECTION ( 'NONE',  ( -3.491481338843133355E-15, 0.000000000000000000, -1.000000000000000000 ) ) ;
#224 = CARTESIAN_POINT ( 'NONE',  ( 4.364351673553916694E-14, 0.000000000000000000, 12.50000000000000000 ) ) ;
#225 = MANIFOLD_SOLID_BREP ( 'Corps-Déplacer/Copier1[1]', #29 ) ;
#226 = DIRECTION ( 'NONE',  ( 1.000000000000000000, 0.000000000000000000, -3.469446951953617344E-15 ) ) ;
#227 = MANIFOLD_SOLID_BREP ( 'Corps-Déplacer/Copier1[2]', #180 ) ;
#228 = AXIS2_PLACEMENT_3D ( 'NONE', #83, #213, #4 ) ;
#229 = EDGE_LOOP ( 'NONE', ( #168, #200, #90, #147 ) ) ;
#230 = FILL_AREA_STYLE_COLOUR ( '', #49 ) ;
#231 = VERTEX_POINT ( 'NONE', #328 ) ;
#232 = DIRECTION ( 'NONE',  ( -3.491481338843133355E-15, 1.224646799147353207E-16, -1.000000000000000000 ) ) ;
#233 = SURFACE_STYLE_FILL_AREA ( #178 ) ;
#234 = DIRECTION ( 'NONE',  ( 1.000000000000000000, 0.000000000000000000, -3.491481338843133355E-15 ) ) ;
#235 = DIRECTION ( 'NONE',  ( 3.327098416510788398E-15, 0.3382550599108816169, 0.9410544694355826856 ) ) ;
#236 = ADVANCED_FACE ( 'NONE', ( #283 ), #333, .F. ) ;
#237 = FACE_OUTER_BOUND ( 'NONE', #284, .T. ) ;
#238 = STYLED_ITEM ( 'NONE', ( #177 ), #239 ) ;
#239 = ADVANCED_BREP_SHAPE_REPRESENTATION ( '67274', ( #225, #227, #218 ), #76 ) ;
#240 = EDGE_CURVE ( 'NONE', #94, #195, #279, .T. ) ;
#241 = LINE ( 'NONE', #275, #203 ) ;
#242 = CARTESIAN_POINT ( 'NONE',  ( 1.227099319523568668E-13, 2.999999999999992895, 56.40000000000000568 ) ) ;
#243 = LINE ( 'NONE', #80, #6 ) ;
#244 = CONICAL_SURFACE ( 'NONE', #102, 2.499999999999999556, 0.3450620389298187374 ) ;
#245 = EDGE_CURVE ( 'NONE', #305, #202, #184, .T. ) ;
#246 = CARTESIAN_POINT ( 'NONE',  ( 1.990144363140586139E-13, -6.980486755139912911E-15, 57.00000000000000000 ) ) ;
#247 = APPLICATION_PROTOCOL_DEFINITION ( 'draft international standard', 'automotive_design', 1998, #135 ) ;
#248 = ORIENTED_EDGE ( 'NONE', *, *, #196, .F. ) ;
#249 = CIRCLE ( 'NONE', #292, 2.999999999999999556 ) ;
#250 = DIRECTION ( 'NONE',  ( 3.491481338843133355E-15, -0.000000000000000000, 1.000000000000000000 ) ) ;
#251 = PRODUCT ( '67274', '67274', '', ( #87 ) ) ;
#252 = SURFACE_STYLE_USAGE ( .BOTH. , #72 ) ;
#253 = EDGE_LOOP ( 'NONE', ( #115, #219, #277, #9 ) ) ;
#254 = CARTESIAN_POINT ( 'NONE',  ( 4.364351673553916694E-14, 2.499999999999997780, 12.50000000000000000 ) ) ;
#255 = ORIENTED_EDGE ( 'NONE', *, *, #79, .T. ) ;
#256 = SURFACE_STYLE_FILL_AREA ( #289 ) ;
#257 = AXIS2_PLACEMENT_3D ( 'NONE', #280, #250, #221 ) ;
#258 = ORIENTED_EDGE ( 'NONE', *, *, #166, .T. ) ;
#259 = SURFACE_SIDE_STYLE ('',( #148 ) ) ;
#260 =( NAMED_UNIT ( * ) SI_UNIT ( $, .STERADIAN. ) SOLID_ANGLE_UNIT ( ) );
#261 = FACE_OUTER_BOUND ( 'NONE', #35, .T. ) ;
#262 = DIRECTION ( 'NONE',  ( -1.000000000000000000, 0.000000000000000000, 3.491481338843133355E-15 ) ) ;
#263 = PRODUCT_RELATED_PRODUCT_CATEGORY ( 'part', '', ( #251 ) ) ;
#264 =( NAMED_UNIT ( * ) SI_UNIT ( $, .STERADIAN. ) SOLID_ANGLE_UNIT ( ) );
#265 = CARTESIAN_POINT ( 'NONE',  ( 4.394967843532600481E-14, 2.499999999999997780, 12.50000000000000000 ) ) ;
#266 = CIRCLE ( 'NONE', #109, 2.400000000000002132 ) ;
#267 = VECTOR ( 'NONE', #235, 1000.000000000000114 ) ;
#268 = CARTESIAN_POINT ( 'NONE',  ( 1.990144363140586139E-13, -6.980486755139912911E-15, 57.00000000000000000 ) ) ;
#269 = CARTESIAN_POINT ( 'NONE',  ( 1.982976465481754853E-13, -2.400000000000008793, 57.00000000000000000 ) ) ;
#270 = DIRECTION ( 'NONE',  ( 0.000000000000000000, 1.000000000000000000, 0.000000000000000000 ) ) ;
#271 = ADVANCED_FACE ( 'NONE', ( #237 ), #120, .T. ) ;
#272 = MECHANICAL_DESIGN_GEOMETRIC_PRESENTATION_REPRESENTATION (  '', ( #238 ), #25 ) ;
#273 = DIRECTION ( 'NONE',  ( -3.491481338843133355E-15, 1.224646799147353207E-16, -1.000000000000000000 ) ) ;
#274 = AXIS2_PLACEMENT_3D ( 'NONE', #224, #68, #304 ) ;
#275 = CARTESIAN_POINT ( 'NONE',  ( 2.500000000000042633, 0.000000000000000000, 12.49999999999999289 ) ) ;
#276 =( NAMED_UNIT ( * ) SI_UNIT ( $, .STERADIAN. ) SOLID_ANGLE_UNIT ( ) );
#277 = ORIENTED_EDGE ( 'NONE', *, *, #152, .T. ) ;
#278 = UNCERTAINTY_MEASURE_WITH_UNIT (LENGTH_MEASURE( 1.000000000000000082E-05 ), #199, 'distance_accuracy_value', 'NONE');
#279 = CIRCLE ( 'NONE', #70, 2.499999999999997780 ) ;
#280 = CARTESIAN_POINT ( 'NONE',  ( 4.364351673553916694E-14, 0.000000000000000000, 12.50000000000000000 ) ) ;
#281 = ORIENTED_EDGE ( 'NONE', *, *, #208, .F. ) ;
#282 = FACE_OUTER_BOUND ( 'NONE', #161, .T. ) ;
#283 = FACE_OUTER_BOUND ( 'NONE', #3, .T. ) ;
#284 = EDGE_LOOP ( 'NONE', ( #190, #222 ) ) ;
#285 = ORIENTED_EDGE ( 'NONE', *, *, #343, .T. ) ;
#286 = DIRECTION ( 'NONE',  ( 0.000000000000000000, 1.000000000000000000, 0.000000000000000000 ) ) ;
#287 = DIRECTION ( 'NONE',  ( 0.000000000000000000, 1.000000000000000000, 0.000000000000000000 ) ) ;
#288 = DIRECTION ( 'NONE',  ( -3.491481338843133355E-15, 1.224646799147353207E-16, -1.000000000000000000 ) ) ;
#289 = FILL_AREA_STYLE ('',( #174 ) ) ;
#290 = CARTESIAN_POINT ( 'NONE',  ( 4.364351673553916694E-14, -1.530808498934191521E-15, 12.50000000000000000 ) ) ;
#291 = DIRECTION ( 'NONE',  ( 3.491481338843133355E-15, -0.000000000000000000, 1.000000000000000000 ) ) ;
#292 = AXIS2_PLACEMENT_3D ( 'NONE', #121, #95, #201 ) ;
#293 = CARTESIAN_POINT ( 'NONE',  ( -2.499999999999999556, 3.061616997868409272E-16, 8.728703347107831810E-15 ) ) ;
#294 = SHAPE_DEFINITION_REPRESENTATION ( #197, #239 ) ;
#295 = DIRECTION ( 'NONE',  ( 0.000000000000000000, -1.000000000000000000, 0.000000000000000000 ) ) ;
#296 = ADVANCED_FACE ( 'NONE', ( #314 ), #144, .T. ) ;
#297 = FACE_OUTER_BOUND ( 'NONE', #307, .T. ) ;
#298 = CONICAL_SURFACE ( 'NONE', #339, 2.499999999999999556, 0.3450620389298187374 ) ;
#299 = ORIENTED_EDGE ( 'NONE', *, *, #55, .T. ) ;
#300 = DIRECTION ( 'NONE',  ( 1.000000000000000000, 0.000000000000000000, -3.491481338843133355E-15 ) ) ;
#301 = AXIS2_PLACEMENT_3D ( 'NONE', #211, #108, #215 ) ;
#302 = ORIENTED_EDGE ( 'NONE', *, *, #79, .F. ) ;
#303 = EDGE_CURVE ( 'NONE', #5, #193, #97, .T. ) ;
#304 = DIRECTION ( 'NONE',  ( 1.000000000000000000, 0.000000000000000000, -3.469446951953616161E-15 ) ) ;
#305 = VERTEX_POINT ( 'NONE', #122 ) ;
#306 = ADVANCED_FACE ( 'NONE', ( #261 ), #298, .T. ) ;
#307 = EDGE_LOOP ( 'NONE', ( #258, #136, #248, #145 ) ) ;
#308 = SURFACE_SIDE_STYLE ('',( #256 ) ) ;
#309 = CIRCLE ( 'NONE', #154, 2.999999999999999556 ) ;
#310 = ORIENTED_EDGE ( 'NONE', *, *, #182, .F. ) ;
#311 = AXIS2_PLACEMENT_3D ( 'NONE', #150, #75, #153 ) ;
#312 = ORIENTED_EDGE ( 'NONE', *, *, #142, .F. ) ;
#313 = PRESENTATION_STYLE_ASSIGNMENT (( #252 ) ) ;
#314 = FACE_OUTER_BOUND ( 'NONE', #163, .T. ) ;
#315 = DIRECTION ( 'NONE',  ( 1.000000000000000000, 0.000000000000000000, -3.491481338843133355E-15 ) ) ;
#316 = COLOUR_RGB ( '',1.000000000000000000, 1.000000000000000000, 1.000000000000000000 ) ;
#317 = CARTESIAN_POINT ( 'NONE',  ( 3.673940397442046556E-16, -2.999999999999999556, -3.673940397442071701E-16 ) ) ;
#318 = AXIS2_PLACEMENT_3D ( 'NONE', #322, #273, #326 ) ;
#319 = DIRECTION ( 'NONE',  ( 0.000000000000000000, 1.000000000000000000, 0.000000000000000000 ) ) ;
#320 =( GEOMETRIC_REPRESENTATION_CONTEXT ( 3 ) GLOBAL_UNCERTAINTY_ASSIGNED_CONTEXT ( ( #139 ) ) GLOBAL_UNIT_ASSIGNED_CONTEXT ( ( #17, #20, #11 ) ) REPRESENTATION_CONTEXT ( 'NONE', 'WORKASPACE' ) );
#321 = PRODUCT_DEFINITION ( 'UNKNOWN', '', #123, #101 ) ;
#322 = CARTESIAN_POINT ( 'NONE',  ( 4.850031639396099352E-14, -1.701162098983991758E-15, 13.89104270854590162 ) ) ;
#323 = PLANE ( 'NONE',  #301 ) ;
#324 = VERTEX_POINT ( 'NONE', #181 ) ;
#325 = AXIS2_PLACEMENT_3D ( 'NONE', #268, #91, #66 ) ;
#326 = DIRECTION ( 'NONE',  ( 0.000000000000000000, 1.000000000000000000, 0.000000000000000000 ) ) ;
#327 = LINE ( 'NONE', #172, #58 ) ;
#328 = CARTESIAN_POINT ( 'NONE',  ( 4.607191656475008023E-14, -2.500000000000001332, 12.50000000000000000 ) ) ;
#329 = ADVANCED_FACE ( 'NONE', ( #21 ), #22, .F. ) ;
#330 = CARTESIAN_POINT ( 'NONE',  ( 4.364351673553916694E-14, -1.530808498934191521E-15, 12.50000000000000000 ) ) ;
#331 = PRESENTATION_STYLE_ASSIGNMENT (( #149 ) ) ;
#332 = ORIENTED_EDGE ( 'NONE', *, *, #240, .T. ) ;
#333 = PLANE ( 'NONE',  #7 ) ;
#334 = CARTESIAN_POINT ( 'NONE',  ( 1.979669919124056928E-13, 2.399999999999995026, 57.00000000000000000 ) ) ;
#335 = DIRECTION ( 'NONE',  ( -3.491481338843133355E-15, 1.224646799147347537E-16, -1.000000000000000000 ) ) ;
#336 = DIRECTION ( 'NONE',  ( -3.491481338843133355E-15, 1.224646799147353207E-16, -1.000000000000000000 ) ) ;
#337 = EDGE_CURVE ( 'NONE', #324, #141, #69, .T. ) ;
#338 = DIRECTION ( 'NONE',  ( 0.000000000000000000, -1.000000000000000000, 0.000000000000000000 ) ) ;
#339 = AXIS2_PLACEMENT_3D ( 'NONE', #290, #205, #338 ) ;
#340 = CONICAL_SURFACE ( 'NONE', #132, 2.999999999999999556, 0.7853981633974492782 ) ;
#341 = CARTESIAN_POINT ( 'NONE',  ( 4.364351673553916694E-14, -1.530808498934191521E-15, 12.50000000000000000 ) ) ;
#342 = DIRECTION ( 'NONE',  ( 3.491481338843133355E-15, -0.000000000000000000, 1.000000000000000000 ) ) ;
#343 = EDGE_CURVE ( 'NONE', #231, #5, #13, .T. ) ;
ENDSEC;
END-ISO-10303-21;
