ISO-10303-21;
HEADER;
FILE_DESCRIPTION (( 'STEP AP203' ),
    '1' );
FILE_NAME ('672.step',
    '2021-12-06T13:00:12',
    ( '' ),
    ( '' ),
    'SwSTEP 2.0',
    'SolidWorks 2019',
    '' );
FILE_SCHEMA (( 'CONFIG_CONTROL_DESIGN' ));
ENDSEC;

DATA;
#1 = ADVANCED_FACE ( 'NONE', ( #53, #69 ), #45, .F. ) ;
#2 = CIRCLE ( 'NONE', #83, 31.50000000000000000 ) ;
#3 = APPROVAL_PERSON_ORGANIZATION ( #58, #158, #75 ) ;
#4 = ORIENTED_EDGE ( 'NONE', *, *, #128, .F. ) ;
#5 = PERSON_AND_ORGANIZATION ( #165, #42 ) ;
#6 = EDGE_LOOP ( 'NONE', ( #79 ) ) ;
#7 = PERSON_AND_ORGANIZATION ( #165, #42 ) ;
#8 = DATE_AND_TIME ( #81, #145 ) ;
#9 = APPROVAL ( #169, 'UNSPECIFIED' ) ;
#10 = PERSON_AND_ORGANIZATION ( #165, #42 ) ;
#11 = PRODUCT ( '672', '672', '', ( #89 ) ) ;
#12 = CARTESIAN_POINT ( 'NONE',  ( 6.982962677686266711E-15, 31.50000000000000000, 2.000000000000000000 ) ) ;
#13 = DATE_AND_TIME ( #124, #102 ) ;
#14 = CIRCLE ( 'NONE', #125, 31.50000000000000000 ) ;
#15 = APPROVAL ( #77, 'UNSPECIFIED' ) ;
#16 = APPROVAL_ROLE ( '' ) ;
#17 = UNCERTAINTY_MEASURE_WITH_UNIT (LENGTH_MEASURE( 1.000000000000000082E-05 ), #23, 'distance_accuracy_value', 'NONE');
#18 = DIRECTION ( 'NONE',  ( -3.491481338843133355E-15, 1.224646799147353207E-16, -1.000000000000000000 ) ) ;
#19 = DIRECTION ( 'NONE',  ( -3.491481338843133355E-15, 1.224646799147353207E-16, -1.000000000000000000 ) ) ;
#20 = EDGE_LOOP ( 'NONE', ( #159 ) ) ;
#21 = PLANE ( 'NONE',  #64 ) ;
#22 = PERSON_AND_ORGANIZATION ( #165, #42 ) ;
#23 =( LENGTH_UNIT ( ) NAMED_UNIT ( * ) SI_UNIT ( .MILLI., .METRE. ) );
#24 = PERSON_AND_ORGANIZATION_ROLE ( 'creator' ) ;
#25 = APPLICATION_PROTOCOL_DEFINITION ( 'international standard', 'config_control_design', 1994, #32 ) ;
#26 = PLANE ( 'NONE',  #49 ) ;
#27 = DATE_AND_TIME ( #100, #62 ) ;
#28 = EDGE_CURVE ( 'NONE', #148, #148, #2, .T. ) ;
#29 = AXIS2_PLACEMENT_3D ( 'NONE', #51, #18, #65 ) ;
#30 = APPROVAL_PERSON_ORGANIZATION ( #50, #15, #16 ) ;
#31 = EDGE_CURVE ( 'NONE', #152, #152, #141, .T. ) ;
#32 = APPLICATION_CONTEXT ( 'configuration controlled 3d designs of mechanical parts and assemblies' ) ;
#33 = CARTESIAN_POINT ( 'NONE',  ( -5.024101948928926757E-30, 8.000000000000000000, -1.438959988998140160E-15 ) ) ;
#34 = CARTESIAN_POINT ( 'NONE',  ( 0.0000000000000000000, 0.0000000000000000000, 0.0000000000000000000 ) ) ;
#35 = COORDINATED_UNIVERSAL_TIME_OFFSET ( 1, 0, .AHEAD. ) ;
#36 = CYLINDRICAL_SURFACE ( 'NONE', #29, 31.50000000000000000 ) ;
#37 = APPROVAL_ROLE ( '' ) ;
#38 = ADVANCED_BREP_SHAPE_REPRESENTATION ( '672', ( #156, #111 ), #110 ) ;
#39 = DATE_AND_TIME ( #95, #121 ) ;
#40 = DIRECTION ( 'NONE',  ( 0.0000000000000000000, 0.0000000000000000000, 1.000000000000000000 ) ) ;
#41 = COORDINATED_UNIVERSAL_TIME_OFFSET ( 1, 0, .AHEAD. ) ;
#42 = ORGANIZATION ( 'UNSPECIFIED', 'UNSPECIFIED', '' ) ;
#43 = LOCAL_TIME ( 14, 0, 12.00000000000000000, #56 ) ;
#44 = ORIENTED_EDGE ( 'NONE', *, *, #31, .F. ) ;
#45 = CYLINDRICAL_SURFACE ( 'NONE', #155, 8.000000000000000000 ) ;
#46 = DATE_AND_TIME ( #60, #43 ) ;
#47 = DIRECTION ( 'NONE',  ( 3.851859888774471706E-31, 1.000000000000000000, 1.084202172485504434E-16 ) ) ;
#48 = CARTESIAN_POINT ( 'NONE',  ( 6.842277657836020854E-46, 8.000000000000000000, 0.0000000000000000000 ) ) ;
#49 = AXIS2_PLACEMENT_3D ( 'NONE', #72, #57, #166 ) ;
#50 = PERSON_AND_ORGANIZATION ( #165, #42 ) ;
#51 = CARTESIAN_POINT ( 'NONE',  ( 0.0000000000000000000, 0.0000000000000000000, 0.0000000000000000000 ) ) ;
#52 = EDGE_LOOP ( 'NONE', ( #118 ) ) ;
#53 = FACE_OUTER_BOUND ( 'NONE', #161, .T. ) ;
#54 = PERSON_AND_ORGANIZATION_ROLE ( 'classification_officer' ) ;
#55 = EDGE_LOOP ( 'NONE', ( #4 ) ) ;
#56 = COORDINATED_UNIVERSAL_TIME_OFFSET ( 1, 0, .AHEAD. ) ;
#57 = DIRECTION ( 'NONE',  ( 3.491481338843133355E-15, -1.224646799147353207E-16, 1.000000000000000000 ) ) ;
#58 = PERSON_AND_ORGANIZATION ( #165, #42 ) ;
#59 = EDGE_CURVE ( 'NONE', #137, #137, #117, .T. ) ;
#60 = CALENDAR_DATE ( 2021, 6, 12 ) ;
#61 = CLOSED_SHELL ( 'NONE', ( #153, #101, #105, #1 ) ) ;
#62 = LOCAL_TIME ( 14, 0, 12.00000000000000000, #107 ) ;
#63 = CC_DESIGN_SECURITY_CLASSIFICATION ( #142, ( #143 ) ) ;
#64 = AXIS2_PLACEMENT_3D ( 'NONE', #33, #78, #123 ) ;
#65 = DIRECTION ( 'NONE',  ( 4.275831445896958607E-31, 1.000000000000000000, 1.224646799147353207E-16 ) ) ;
#66 = CC_DESIGN_DATE_AND_TIME_ASSIGNMENT ( #39, #109, ( #90 ) ) ;
#67 = EDGE_LOOP ( 'NONE', ( #129 ) ) ;
#68 = DIRECTION ( 'NONE',  ( -3.491481338843133355E-15, 1.224646799147353207E-16, -1.000000000000000000 ) ) ;
#69 = FACE_OUTER_BOUND ( 'NONE', #52, .T. ) ;
#70 = DIRECTION ( 'NONE',  ( 1.000000000000000000, 0.0000000000000000000, 0.0000000000000000000 ) ) ;
#71 = APPROVAL_STATUS ( 'not_yet_approved' ) ;
#72 = CARTESIAN_POINT ( 'NONE',  ( 6.982962677686261977E-15, 8.000000000000000000, 1.999999999999998668 ) ) ;
#73 = CC_DESIGN_DATE_AND_TIME_ASSIGNMENT ( #27, #76, ( #142 ) ) ;
#74 = APPROVAL_PERSON_ORGANIZATION ( #10, #9, #37 ) ;
#75 = APPROVAL_ROLE ( '' ) ;
#76 = DATE_TIME_ROLE ( 'classification_date' ) ;
#77 = APPROVAL_STATUS ( 'not_yet_approved' ) ;
#78 = DIRECTION ( 'NONE',  ( -3.491481338843133355E-15, 1.224646799147353207E-16, -1.000000000000000000 ) ) ;
#79 = ORIENTED_EDGE ( 'NONE', *, *, #28, .F. ) ;
#80 = DIRECTION ( 'NONE',  ( -3.491481338843133355E-15, 1.224646799147353207E-16, -1.000000000000000000 ) ) ;
#81 = CALENDAR_DATE ( 2021, 6, 12 ) ;
#82 = ORIENTED_EDGE ( 'NONE', *, *, #128, .T. ) ;
#83 = AXIS2_PLACEMENT_3D ( 'NONE', #149, #133, #146 ) ;
#84 =( NAMED_UNIT ( * ) PLANE_ANGLE_UNIT ( ) SI_UNIT ( $, .RADIAN. ) );
#85 = DIRECTION ( 'NONE',  ( 4.275831445896958607E-31, 1.000000000000000000, 1.224646799147353207E-16 ) ) ;
#86 = COORDINATED_UNIVERSAL_TIME_OFFSET ( 1, 0, .AHEAD. ) ;
#87 = VERTEX_POINT ( 'NONE', #164 ) ;
#88 = APPLICATION_CONTEXT ( 'configuration controlled 3d designs of mechanical parts and assemblies' ) ;
#89 = MECHANICAL_CONTEXT ( 'NONE', #32, 'mechanical' ) ;
#90 = PRODUCT_DEFINITION ( 'UNKNOWN', '', #143, #114 ) ;
#91 = PERSON_AND_ORGANIZATION_ROLE ( 'creator' ) ;
#92 = DIRECTION ( 'NONE',  ( 4.275831445896958607E-31, 1.000000000000000000, 1.224646799147353207E-16 ) ) ;
#93 = FACE_OUTER_BOUND ( 'NONE', #55, .T. ) ;
#94 = AXIS2_PLACEMENT_3D ( 'NONE', #163, #144, #47 ) ;
#95 = CALENDAR_DATE ( 2021, 6, 12 ) ;
#96 = CC_DESIGN_PERSON_AND_ORGANIZATION_ASSIGNMENT ( #122, #91, ( #90 ) ) ;
#97 =( NAMED_UNIT ( * ) SI_UNIT ( $, .STERADIAN. ) SOLID_ANGLE_UNIT ( ) );
#98 = PRODUCT_DEFINITION_SHAPE ( 'NONE', 'NONE',  #90 ) ;
#99 = AXIS2_PLACEMENT_3D ( 'NONE', #108, #68, #92 ) ;
#100 = CALENDAR_DATE ( 2021, 6, 12 ) ;
#101 = ADVANCED_FACE ( 'NONE', ( #115, #93 ), #36, .T. ) ;
#102 = LOCAL_TIME ( 14, 0, 12.00000000000000000, #41 ) ;
#103 = CC_DESIGN_PERSON_AND_ORGANIZATION_ASSIGNMENT ( #5, #54, ( #142 ) ) ;
#104 = FACE_BOUND ( 'NONE', #131, .T. ) ;
#105 = ADVANCED_FACE ( 'NONE', ( #116, #139 ), #26, .T. ) ;
#106 = CARTESIAN_POINT ( 'NONE',  ( -1.346886905457541760E-29, 4.724243315384851574E-31, -3.857637417314162689E-15 ) ) ;
#107 = COORDINATED_UNIVERSAL_TIME_OFFSET ( 1, 0, .AHEAD. ) ;
#108 = CARTESIAN_POINT ( 'NONE',  ( -3.420665156717566185E-30, 1.199807826129486086E-31, -9.797174393178825657E-16 ) ) ;
#109 = DATE_TIME_ROLE ( 'creation_date' ) ;
#110 =( GEOMETRIC_REPRESENTATION_CONTEXT ( 3 ) GLOBAL_UNCERTAINTY_ASSIGNED_CONTEXT ( ( #17 ) ) GLOBAL_UNIT_ASSIGNED_CONTEXT ( ( #23, #84, #97 ) ) REPRESENTATION_CONTEXT ( 'NONE', 'WORKASPACE' ) );
#111 = AXIS2_PLACEMENT_3D ( 'NONE', #150, #40, #70 ) ;
#112 = SECURITY_CLASSIFICATION_LEVEL ( 'unclassified' ) ;
#113 = CC_DESIGN_APPROVAL ( #9, ( #143 ) ) ;
#114 = DESIGN_CONTEXT ( 'detailed design', #88, 'design' ) ;
#115 = FACE_OUTER_BOUND ( 'NONE', #20, .T. ) ;
#116 = FACE_BOUND ( 'NONE', #67, .T. ) ;
#117 = CIRCLE ( 'NONE', #94, 8.000000000000000000 ) ;
#118 = ORIENTED_EDGE ( 'NONE', *, *, #59, .F. ) ;
#119 = PERSON_AND_ORGANIZATION_ROLE ( 'design_supplier' ) ;
#120 = CC_DESIGN_PERSON_AND_ORGANIZATION_ASSIGNMENT ( #7, #167, ( #11 ) ) ;
#121 = LOCAL_TIME ( 14, 0, 12.00000000000000000, #35 ) ;
#122 = PERSON_AND_ORGANIZATION ( #165, #42 ) ;
#123 = DIRECTION ( 'NONE',  ( 4.275831445896958607E-31, 1.000000000000000000, 1.224646799147353207E-16 ) ) ;
#124 = CALENDAR_DATE ( 2021, 6, 12 ) ;
#125 = AXIS2_PLACEMENT_3D ( 'NONE', #106, #19, #132 ) ;
#126 = SHAPE_DEFINITION_REPRESENTATION ( #98, #38 ) ;
#127 = CC_DESIGN_APPROVAL ( #158, ( #90 ) ) ;
#128 = EDGE_CURVE ( 'NONE', #87, #87, #14, .T. ) ;
#129 = ORIENTED_EDGE ( 'NONE', *, *, #59, .T. ) ;
#130 = CC_DESIGN_PERSON_AND_ORGANIZATION_ASSIGNMENT ( #22, #119, ( #143 ) ) ;
#131 = EDGE_LOOP ( 'NONE', ( #44 ) ) ;
#132 = DIRECTION ( 'NONE',  ( 4.275831445896958607E-31, 1.000000000000000000, 1.224646799147353207E-16 ) ) ;
#133 = DIRECTION ( 'NONE',  ( -3.491481338843133355E-15, 1.224646799147353207E-16, -1.000000000000000000 ) ) ;
#134 = APPROVAL_DATE_TIME ( #8, #9 ) ;
#135 = ORIENTED_EDGE ( 'NONE', *, *, #31, .T. ) ;
#136 = PERSON_AND_ORGANIZATION ( #165, #42 ) ;
#137 = VERTEX_POINT ( 'NONE', #147 ) ;
#138 = APPLICATION_PROTOCOL_DEFINITION ( 'international standard', 'config_control_design', 1994, #88 ) ;
#139 = FACE_OUTER_BOUND ( 'NONE', #6, .T. ) ;
#140 = APPROVAL_DATE_TIME ( #13, #15 ) ;
#141 = CIRCLE ( 'NONE', #99, 8.000000000000000000 ) ;
#142 = SECURITY_CLASSIFICATION ( '', '', #112 ) ;
#143 = PRODUCT_DEFINITION_FORMATION_WITH_SPECIFIED_SOURCE ( 'ANY', '', #11, .NOT_KNOWN. ) ;
#144 = DIRECTION ( 'NONE',  ( -3.491481338843133355E-15, 1.224646799147353207E-16, -1.000000000000000000 ) ) ;
#145 = LOCAL_TIME ( 14, 0, 12.00000000000000000, #86 ) ;
#146 = DIRECTION ( 'NONE',  ( 4.402125587170824932E-31, 1.000000000000000000, 1.239088197126290817E-16 ) ) ;
#147 = CARTESIAN_POINT ( 'NONE',  ( 6.982962677686266711E-15, 8.000000000000000000, 2.000000000000000000 ) ) ;
#148 = VERTEX_POINT ( 'NONE', #12 ) ;
#149 = CARTESIAN_POINT ( 'NONE',  ( 6.982962677686253300E-15, -2.449293598294701484E-16, 1.999999999999996225 ) ) ;
#150 = CARTESIAN_POINT ( 'NONE',  ( 0.0000000000000000000, 0.0000000000000000000, 0.0000000000000000000 ) ) ;
#151 = PRODUCT_RELATED_PRODUCT_CATEGORY ( 'detail', '', ( #11 ) ) ;
#152 = VERTEX_POINT ( 'NONE', #48 ) ;
#153 = ADVANCED_FACE ( 'NONE', ( #157, #104 ), #21, .T. ) ;
#154 = CC_DESIGN_APPROVAL ( #15, ( #142 ) ) ;
#155 = AXIS2_PLACEMENT_3D ( 'NONE', #34, #80, #85 ) ;
#156 = MANIFOLD_SOLID_BREP ( 'Corps-Déplacer/Copier1', #61 ) ;
#157 = FACE_OUTER_BOUND ( 'NONE', #160, .T. ) ;
#158 = APPROVAL ( #71, 'UNSPECIFIED' ) ;
#159 = ORIENTED_EDGE ( 'NONE', *, *, #28, .T. ) ;
#160 = EDGE_LOOP ( 'NONE', ( #82 ) ) ;
#161 = EDGE_LOOP ( 'NONE', ( #135 ) ) ;
#162 = APPROVAL_DATE_TIME ( #46, #158 ) ;
#163 = CARTESIAN_POINT ( 'NONE',  ( 6.982962677686263555E-15, -2.449293598294705428E-16, 1.999999999999999112 ) ) ;
#164 = CARTESIAN_POINT ( 'NONE',  ( 2.736911063134408342E-45, 31.50000000000000000, 0.0000000000000000000 ) ) ;
#165 = PERSON ( 'UNSPECIFIED', 'UNSPECIFIED', 'UNSPECIFIED', ('UNSPECIFIED'), ('UNSPECIFIED'), ('UNSPECIFIED') ) ;
#166 = DIRECTION ( 'NONE',  ( -4.275831445896958607E-31, -1.000000000000000000, -1.224646799147353207E-16 ) ) ;
#167 = PERSON_AND_ORGANIZATION_ROLE ( 'design_owner' ) ;
#168 = CC_DESIGN_PERSON_AND_ORGANIZATION_ASSIGNMENT ( #136, #24, ( #143 ) ) ;
#169 = APPROVAL_STATUS ( 'not_yet_approved' ) ;
ENDSEC;
END-ISO-10303-21;
