ISO-10303-21;
HEADER;
FILE_DESCRIPTION (( 'STEP AP203' ),
    '1' );
FILE_NAME ('66988.step',
    '2021-11-01T12:23:48',
    ( '' ),
    ( '' ),
    'SwSTEP 2.0',
    'SolidWorks 2019',
    '' );
FILE_SCHEMA (( 'CONFIG_CONTROL_DESIGN' ));
ENDSEC;

DATA;
#1 = CARTESIAN_POINT ( 'NONE',  ( 1.326762908760390423E-13, -4.653657836759941941E-15, 38.00000000000000000 ) ) ;
#2 = DIRECTION ( 'NONE',  ( -3.491481338843133355E-15, 1.224646799147353207E-16, -1.000000000000000000 ) ) ;
#3 = FACE_OUTER_BOUND ( 'NONE', #83, .T. ) ;
#4 = DIRECTION ( 'NONE',  ( 3.491481338843133355E-15, -1.224646799147353207E-16, 1.000000000000000000 ) ) ;
#5 = DIRECTION ( 'NONE',  ( 0.0000000000000000000, 0.0000000000000000000, 1.000000000000000000 ) ) ;
#6 = APPLICATION_PROTOCOL_DEFINITION ( 'international standard', 'config_control_design', 1994, #52 ) ;
#7 = APPROVAL_ROLE ( '' ) ;
#8 = CC_DESIGN_PERSON_AND_ORGANIZATION_ASSIGNMENT ( #199, #200, ( #164 ) ) ;
#9 =( NAMED_UNIT ( * ) SI_UNIT ( $, .STERADIAN. ) SOLID_ANGLE_UNIT ( ) );
#10 = AXIS2_PLACEMENT_3D ( 'NONE', #61, #5, #170 ) ;
#11 = EDGE_LOOP ( 'NONE', ( #222 ) ) ;
#12 = ORIENTED_EDGE ( 'NONE', *, *, #143, .T. ) ;
#13 = EDGE_CURVE ( 'NONE', #17, #17, #84, .T. ) ;
#14 = CARTESIAN_POINT ( 'NONE',  ( 1.326762908760390423E-13, 8.998558695971051224E-33, 38.00000000000000000 ) ) ;
#15 = ADVANCED_FACE ( 'NONE', ( #122 ), #33, .F. ) ;
#16 = PRODUCT_DEFINITION_FORMATION_WITH_SPECIFIED_SOURCE ( 'ANY', '', #164, .NOT_KNOWN. ) ;
#17 = VERTEX_POINT ( 'NONE', #92 ) ;
#18 = UNCERTAINTY_MEASURE_WITH_UNIT (LENGTH_MEASURE( 1.000000000000000082E-05 ), #97, 'distance_accuracy_value', 'NONE');
#19 = VERTEX_POINT ( 'NONE', #171 ) ;
#20 = CYLINDRICAL_SURFACE ( 'NONE', #69, 0.8999999999999999112 ) ;
#21 = DESIGN_CONTEXT ( 'detailed design', #87, 'design' ) ;
#22 = APPROVAL ( #219, 'UNSPECIFIED' ) ;
#23 = FACE_OUTER_BOUND ( 'NONE', #160, .T. ) ;
#24 = AXIS2_PLACEMENT_3D ( 'NONE', #198, #2, #128 ) ;
#25 = PERSON_AND_ORGANIZATION ( #91, #28 ) ;
#26 = DIRECTION ( 'NONE',  ( 3.491481338843133355E-15, -1.224646799147353207E-16, 1.000000000000000000 ) ) ;
#27 = SHAPE_DEFINITION_REPRESENTATION ( #145, #96 ) ;
#28 = ORGANIZATION ( 'UNSPECIFIED', 'UNSPECIFIED', '' ) ;
#29 = APPROVAL_DATE_TIME ( #115, #22 ) ;
#30 = PERSON_AND_ORGANIZATION_ROLE ( 'creator' ) ;
#31 = ORIENTED_EDGE ( 'NONE', *, *, #156, .F. ) ;
#32 = APPROVAL ( #217, 'UNSPECIFIED' ) ;
#33 = PLANE ( 'NONE',  #68 ) ;
#34 = CIRCLE ( 'NONE', #65, 1.199999999999996403 ) ;
#35 = EDGE_LOOP ( 'NONE', ( #55 ) ) ;
#36 = DIRECTION ( 'NONE',  ( -3.491481338843133355E-15, 1.224646799147353207E-16, -1.000000000000000000 ) ) ;
#37 = DIRECTION ( 'NONE',  ( 0.0000000000000000000, 1.000000000000000000, 0.0000000000000000000 ) ) ;
#38 = CARTESIAN_POINT ( 'NONE',  ( -8.551680453529350800E-31, 2.999525725151307090E-32, -2.449298628175645296E-16 ) ) ;
#39 = APPROVAL_ROLE ( '' ) ;
#40 = PLANE ( 'NONE',  #207 ) ;
#41 = PERSON_AND_ORGANIZATION ( #91, #28 ) ;
#42 = DIRECTION ( 'NONE',  ( 0.0000000000000000000, 1.000000000000000000, 0.0000000000000000000 ) ) ;
#43 = CIRCLE ( 'NONE', #104, 0.9000000000000003553 ) ;
#44 = DATE_AND_TIME ( #216, #140 ) ;
#45 =( NAMED_UNIT ( * ) PLANE_ANGLE_UNIT ( ) SI_UNIT ( $, .RADIAN. ) );
#46 = AXIS2_PLACEMENT_3D ( 'NONE', #125, #192, #177 ) ;
#47 = PERSON_AND_ORGANIZATION_ROLE ( 'classification_officer' ) ;
#48 = PRODUCT_DEFINITION ( 'UNKNOWN', '', #16, #21 ) ;
#49 = ORIENTED_EDGE ( 'NONE', *, *, #175, .F. ) ;
#50 = CIRCLE ( 'NONE', #182, 0.9000000000000003553 ) ;
#51 = ADVANCED_FACE ( 'NONE', ( #74 ), #75, .F. ) ;
#52 = APPLICATION_CONTEXT ( 'configuration controlled 3d designs of mechanical parts and assemblies' ) ;
#53 = DIRECTION ( 'NONE',  ( -4.285855558155652404E-31, -1.000000000000000000, -1.227517819005651305E-16 ) ) ;
#54 = AXIS2_PLACEMENT_3D ( 'NONE', #154, #89, #212 ) ;
#55 = ORIENTED_EDGE ( 'NONE', *, *, #186, .T. ) ;
#56 = CARTESIAN_POINT ( 'NONE',  ( 1.885399922975291696E-14, -6.628596222630513843E-16, 5.399999999999998579 ) ) ;
#57 = CYLINDRICAL_SURFACE ( 'NONE', #24, 1.499999999999994893 ) ;
#58 = APPROVAL_PERSON_ORGANIZATION ( #25, #22, #7 ) ;
#59 = CARTESIAN_POINT ( 'NONE',  ( 1.326762908760390423E-13, -4.653657836759941941E-15, 38.00000000000000000 ) ) ;
#60 = FACE_OUTER_BOUND ( 'NONE', #204, .T. ) ;
#61 = CARTESIAN_POINT ( 'NONE',  ( 0.0000000000000000000, 0.0000000000000000000, 0.0000000000000000000 ) ) ;
#62 = CC_DESIGN_PERSON_AND_ORGANIZATION_ASSIGNMENT ( #187, #47, ( #77 ) ) ;
#63 = COORDINATED_UNIVERSAL_TIME_OFFSET ( 1, 0, .AHEAD. ) ;
#64 = MANIFOLD_SOLID_BREP ( 'Corps-Déplacer/Copier1[2]', #93 ) ;
#65 = AXIS2_PLACEMENT_3D ( 'NONE', #1, #163, #37 ) ;
#66 = CALENDAR_DATE ( 2021, 1, 11 ) ;
#67 = EDGE_LOOP ( 'NONE', ( #189 ) ) ;
#68 = AXIS2_PLACEMENT_3D ( 'NONE', #14, #86, #181 ) ;
#69 = AXIS2_PLACEMENT_3D ( 'NONE', #191, #107, #112 ) ;
#70 = CARTESIAN_POINT ( 'NONE',  ( 1.316288464743861212E-13, -4.616918432785521081E-15, 37.69999999999999574 ) ) ;
#71 = CARTESIAN_POINT ( 'NONE',  ( 1.885399922975291696E-14, -0.9000000000000010214, 5.399999999999998579 ) ) ;
#72 = AXIS2_PLACEMENT_3D ( 'NONE', #141, #142, #53 ) ;
#73 = CC_DESIGN_SECURITY_CLASSIFICATION ( #77, ( #16 ) ) ;
#74 = FACE_OUTER_BOUND ( 'NONE', #103, .T. ) ;
#75 = PLANE ( 'NONE',  #126 ) ;
#76 = COORDINATED_UNIVERSAL_TIME_OFFSET ( 1, 0, .AHEAD. ) ;
#77 = SECURITY_CLASSIFICATION ( '', '', #118 ) ;
#78 = COORDINATED_UNIVERSAL_TIME_OFFSET ( 1, 0, .AHEAD. ) ;
#79 = CALENDAR_DATE ( 2021, 1, 11 ) ;
#80 = COORDINATED_UNIVERSAL_TIME_OFFSET ( 1, 0, .AHEAD. ) ;
#81 = CIRCLE ( 'NONE', #201, 1.499999999999994893 ) ;
#82 = ADVANCED_FACE ( 'NONE', ( #23, #208 ), #116, .F. ) ;
#83 = EDGE_LOOP ( 'NONE', ( #106 ) ) ;
#84 = CIRCLE ( 'NONE', #72, 0.8999999999999993561 ) ;
#85 = CC_DESIGN_APPROVAL ( #22, ( #48 ) ) ;
#86 = DIRECTION ( 'NONE',  ( -3.491481338843133355E-15, 1.224646799147353207E-16, -1.000000000000000000 ) ) ;
#87 = APPLICATION_CONTEXT ( 'configuration controlled 3d designs of mechanical parts and assemblies' ) ;
#88 = ORIENTED_EDGE ( 'NONE', *, *, #131, .F. ) ;
#89 = DIRECTION ( 'NONE',  ( 3.491481338843133355E-15, -1.227517819005651059E-16, 1.000000000000000000 ) ) ;
#90 = FACE_OUTER_BOUND ( 'NONE', #190, .T. ) ;
#91 = PERSON ( 'UNSPECIFIED', 'UNSPECIFIED', 'UNSPECIFIED', ('UNSPECIFIED'), ('UNSPECIFIED'), ('UNSPECIFIED') ) ;
#92 = CARTESIAN_POINT ( 'NONE',  ( -7.714540004680169948E-31, -0.8999999999999993561, -2.209532074210170624E-16 ) ) ;
#93 = CLOSED_SHELL ( 'NONE', ( #135, #220, #51 ) ) ;
#94 = FACE_OUTER_BOUND ( 'NONE', #161, .T. ) ;
#95 = DIRECTION ( 'NONE',  ( 0.0000000000000000000, 1.000000000000000000, 0.0000000000000000000 ) ) ;
#96 = ADVANCED_BREP_SHAPE_REPRESENTATION ( '66988', ( #144, #64, #10 ), #193 ) ;
#97 =( LENGTH_UNIT ( ) NAMED_UNIT ( * ) SI_UNIT ( .MILLI., .METRE. ) );
#98 = DATE_TIME_ROLE ( 'classification_date' ) ;
#99 = DATE_AND_TIME ( #157, #214 ) ;
#100 = DATE_AND_TIME ( #136, #205 ) ;
#101 = CC_DESIGN_DATE_AND_TIME_ASSIGNMENT ( #100, #98, ( #77 ) ) ;
#102 = EDGE_LOOP ( 'NONE', ( #206 ) ) ;
#103 = EDGE_LOOP ( 'NONE', ( #123 ) ) ;
#104 = AXIS2_PLACEMENT_3D ( 'NONE', #56, #124, #167 ) ;
#105 = APPROVAL ( #113, 'UNSPECIFIED' ) ;
#106 = ORIENTED_EDGE ( 'NONE', *, *, #143, .F. ) ;
#107 = DIRECTION ( 'NONE',  ( 3.491481338843133355E-15, -1.227517819005651059E-16, 1.000000000000000000 ) ) ;
#108 = ADVANCED_FACE ( 'NONE', ( #150, #94 ), #57, .T. ) ;
#109 = APPROVAL_PERSON_ORGANIZATION ( #202, #32, #39 ) ;
#110 = VERTEX_POINT ( 'NONE', #179 ) ;
#111 = FACE_BOUND ( 'NONE', #35, .T. ) ;
#112 = DIRECTION ( 'NONE',  ( -4.285855558155653280E-31, -1.000000000000000000, -1.227517819005650812E-16 ) ) ;
#113 = APPROVAL_STATUS ( 'not_yet_approved' ) ;
#114 = DIRECTION ( 'NONE',  ( 3.491481338843133355E-15, -1.227517819005651059E-16, 1.000000000000000000 ) ) ;
#115 = DATE_AND_TIME ( #66, #185 ) ;
#116 = TOROIDAL_SURFACE ( 'NONE', #54, 8.899999999999998579, 8.000000000000000000 ) ;
#117 = APPLICATION_PROTOCOL_DEFINITION ( 'international standard', 'config_control_design', 1994, #87 ) ;
#118 = SECURITY_CLASSIFICATION_LEVEL ( 'unclassified' ) ;
#119 = ADVANCED_FACE ( 'NONE', ( #60, #111 ), #146, .T. ) ;
#120 = COORDINATED_UNIVERSAL_TIME_OFFSET ( 1, 0, .AHEAD. ) ;
#121 = EDGE_LOOP ( 'NONE', ( #188 ) ) ;
#122 = FACE_OUTER_BOUND ( 'NONE', #67, .T. ) ;
#123 = ORIENTED_EDGE ( 'NONE', *, *, #13, .F. ) ;
#124 = DIRECTION ( 'NONE',  ( 3.491481338843133355E-15, -1.227517819005651059E-16, 1.000000000000000000 ) ) ;
#125 = CARTESIAN_POINT ( 'NONE',  ( 1.885399922975292327E-14, 1.124819836996386911E-32, 5.400000000000000355 ) ) ;
#126 = AXIS2_PLACEMENT_3D ( 'NONE', #38, #4, #152 ) ;
#127 = CIRCLE ( 'NONE', #137, 1.499999999999996669 ) ;
#128 = DIRECTION ( 'NONE',  ( 4.275831445896958607E-31, 1.000000000000000000, 1.224646799147353207E-16 ) ) ;
#129 = DATE_AND_TIME ( #79, #169 ) ;
#130 = DIRECTION ( 'NONE',  ( 0.0000000000000000000, 1.000000000000000000, 0.0000000000000000000 ) ) ;
#131 = EDGE_CURVE ( 'NONE', #166, #166, #50, .T. ) ;
#132 = DIRECTION ( 'NONE',  ( -3.491481338843133355E-15, 1.224646799147353207E-16, -1.000000000000000000 ) ) ;
#133 = PERSON_AND_ORGANIZATION ( #91, #28 ) ;
#134 = PERSON_AND_ORGANIZATION ( #91, #28 ) ;
#135 = ADVANCED_FACE ( 'NONE', ( #90 ), #211, .T. ) ;
#136 = CALENDAR_DATE ( 2021, 1, 11 ) ;
#137 = AXIS2_PLACEMENT_3D ( 'NONE', #70, #36, #95 ) ;
#138 = PERSON_AND_ORGANIZATION ( #91, #28 ) ;
#139 = ORIENTED_EDGE ( 'NONE', *, *, #131, .T. ) ;
#140 = LOCAL_TIME ( 13, 23, 48.00000000000000000, #76 ) ;
#141 = CARTESIAN_POINT ( 'NONE',  ( -3.857270002340085850E-31, -8.987882689079814825E-33, -1.104766037105085312E-16 ) ) ;
#142 = DIRECTION ( 'NONE',  ( 3.491481338843133355E-15, -1.227517819005651059E-16, 1.000000000000000000 ) ) ;
#143 = EDGE_CURVE ( 'NONE', #110, #110, #43, .T. ) ;
#144 = MANIFOLD_SOLID_BREP ( 'Corps-Déplacer/Copier1[1]', #172 ) ;
#145 = PRODUCT_DEFINITION_SHAPE ( 'NONE', 'NONE',  #48 ) ;
#146 = CONICAL_SURFACE ( 'NONE', #151, 1.199999999999996403, 0.7853981633974461696 ) ;
#147 = CC_DESIGN_PERSON_AND_ORGANIZATION_ASSIGNMENT ( #133, #184, ( #48 ) ) ;
#148 = FACE_OUTER_BOUND ( 'NONE', #121, .T. ) ;
#149 = CARTESIAN_POINT ( 'NONE',  ( 1.885399922975291696E-14, -6.628596222630513843E-16, 5.399999999999998579 ) ) ;
#150 = FACE_OUTER_BOUND ( 'NONE', #11, .T. ) ;
#151 = AXIS2_PLACEMENT_3D ( 'NONE', #59, #132, #42 ) ;
#152 = DIRECTION ( 'NONE',  ( -4.275831445896958607E-31, -1.000000000000000000, -1.224646799147353207E-16 ) ) ;
#153 = APPROVAL_DATE_TIME ( #129, #32 ) ;
#154 = CARTESIAN_POINT ( 'NONE',  ( 1.885399922975292012E-14, 0.0000000000000000000, 5.399999999999999467 ) ) ;
#155 = APPROVAL_PERSON_ORGANIZATION ( #41, #105, #168 ) ;
#156 = EDGE_CURVE ( 'NONE', #19, #19, #81, .T. ) ;
#157 = CALENDAR_DATE ( 2021, 1, 11 ) ;
#158 = VERTEX_POINT ( 'NONE', #218 ) ;
#159 = VERTEX_POINT ( 'NONE', #213 ) ;
#160 = EDGE_LOOP ( 'NONE', ( #139 ) ) ;
#161 = EDGE_LOOP ( 'NONE', ( #31 ) ) ;
#162 = CARTESIAN_POINT ( 'NONE',  ( 1.885399922975292327E-14, 1.124819836996386911E-32, 5.400000000000000355 ) ) ;
#163 = DIRECTION ( 'NONE',  ( -3.491481338843133355E-15, 1.224646799147353207E-16, -1.000000000000000000 ) ) ;
#164 = PRODUCT ( '66988', '66988', '', ( #173 ) ) ;
#165 = CC_DESIGN_PERSON_AND_ORGANIZATION_ASSIGNMENT ( #138, #203, ( #16 ) ) ;
#166 = VERTEX_POINT ( 'NONE', #71 ) ;
#167 = DIRECTION ( 'NONE',  ( 0.0000000000000000000, -1.000000000000000000, 0.0000000000000000000 ) ) ;
#168 = APPROVAL_ROLE ( '' ) ;
#169 = LOCAL_TIME ( 13, 23, 48.00000000000000000, #80 ) ;
#170 = DIRECTION ( 'NONE',  ( 1.000000000000000000, 0.0000000000000000000, 0.0000000000000000000 ) ) ;
#171 = CARTESIAN_POINT ( 'NONE',  ( 2.946718364918544772E-14, 1.499999999999994449, 8.439736830714121396 ) ) ;
#172 = CLOSED_SHELL ( 'NONE', ( #108, #119, #15, #82, #174 ) ) ;
#173 = MECHANICAL_CONTEXT ( 'NONE', #52, 'mechanical' ) ;
#174 = ADVANCED_FACE ( 'NONE', ( #196 ), #40, .F. ) ;
#175 = EDGE_CURVE ( 'NONE', #159, #159, #127, .T. ) ;
#176 = PRODUCT_RELATED_PRODUCT_CATEGORY ( 'detail', '', ( #164 ) ) ;
#177 = DIRECTION ( 'NONE',  ( -4.275831445896958607E-31, -1.000000000000000000, -1.224646799147353207E-16 ) ) ;
#178 = CC_DESIGN_APPROVAL ( #105, ( #16 ) ) ;
#179 = CARTESIAN_POINT ( 'NONE',  ( 1.885399922975291696E-14, -0.9000000000000010214, 5.399999999999998579 ) ) ;
#180 = CARTESIAN_POINT ( 'NONE',  ( 2.946718364918544772E-14, -3.731331124789349905E-16, 8.439736830714121396 ) ) ;
#181 = DIRECTION ( 'NONE',  ( 4.275831445896958607E-31, 1.000000000000000000, 1.224646799147353207E-16 ) ) ;
#182 = AXIS2_PLACEMENT_3D ( 'NONE', #149, #114, #195 ) ;
#183 = DIRECTION ( 'NONE',  ( -3.491481338843133355E-15, 1.227517819005651059E-16, -1.000000000000000000 ) ) ;
#184 = PERSON_AND_ORGANIZATION_ROLE ( 'creator' ) ;
#185 = LOCAL_TIME ( 13, 23, 48.00000000000000000, #78 ) ;
#186 = EDGE_CURVE ( 'NONE', #158, #158, #34, .T. ) ;
#187 = PERSON_AND_ORGANIZATION ( #91, #28 ) ;
#188 = ORIENTED_EDGE ( 'NONE', *, *, #13, .T. ) ;
#189 = ORIENTED_EDGE ( 'NONE', *, *, #186, .F. ) ;
#190 = EDGE_LOOP ( 'NONE', ( #12 ) ) ;
#191 = CARTESIAN_POINT ( 'NONE',  ( -6.413731847436034514E-31, 0.0000000000000000000, -1.836965810494968570E-16 ) ) ;
#192 = DIRECTION ( 'NONE',  ( 3.491481338843133355E-15, -1.224646799147353207E-16, 1.000000000000000000 ) ) ;
#193 =( GEOMETRIC_REPRESENTATION_CONTEXT ( 3 ) GLOBAL_UNCERTAINTY_ASSIGNED_CONTEXT ( ( #18 ) ) GLOBAL_UNIT_ASSIGNED_CONTEXT ( ( #97, #45, #9 ) ) REPRESENTATION_CONTEXT ( 'NONE', 'WORKASPACE' ) );
#194 = CC_DESIGN_DATE_AND_TIME_ASSIGNMENT ( #99, #197, ( #48 ) ) ;
#195 = DIRECTION ( 'NONE',  ( 0.0000000000000000000, -1.000000000000000000, 0.0000000000000000000 ) ) ;
#196 = FACE_OUTER_BOUND ( 'NONE', #223, .T. ) ;
#197 = DATE_TIME_ROLE ( 'creation_date' ) ;
#198 = CARTESIAN_POINT ( 'NONE',  ( 0.0000000000000000000, 0.0000000000000000000, 0.0000000000000000000 ) ) ;
#199 = PERSON_AND_ORGANIZATION ( #91, #28 ) ;
#200 = PERSON_AND_ORGANIZATION_ROLE ( 'design_owner' ) ;
#201 = AXIS2_PLACEMENT_3D ( 'NONE', #180, #183, #130 ) ;
#202 = PERSON_AND_ORGANIZATION ( #91, #28 ) ;
#203 = PERSON_AND_ORGANIZATION_ROLE ( 'design_supplier' ) ;
#204 = EDGE_LOOP ( 'NONE', ( #49 ) ) ;
#205 = LOCAL_TIME ( 13, 23, 48.00000000000000000, #120 ) ;
#206 = ORIENTED_EDGE ( 'NONE', *, *, #156, .T. ) ;
#207 = AXIS2_PLACEMENT_3D ( 'NONE', #162, #26, #210 ) ;
#208 = FACE_OUTER_BOUND ( 'NONE', #102, .T. ) ;
#209 = CC_DESIGN_PERSON_AND_ORGANIZATION_ASSIGNMENT ( #134, #30, ( #16 ) ) ;
#210 = DIRECTION ( 'NONE',  ( -4.275831445896958607E-31, -1.000000000000000000, -1.224646799147353207E-16 ) ) ;
#211 = PLANE ( 'NONE',  #46 ) ;
#212 = DIRECTION ( 'NONE',  ( -4.348708325974019258E-31, -1.000000000000000000, -1.227517819005651059E-16 ) ) ;
#213 = CARTESIAN_POINT ( 'NONE',  ( 1.316288464743861212E-13, 1.499999999999992228, 37.69999999999999574 ) ) ;
#214 = LOCAL_TIME ( 13, 23, 48.00000000000000000, #63 ) ;
#215 = APPROVAL_DATE_TIME ( #44, #105 ) ;
#216 = CALENDAR_DATE ( 2021, 1, 11 ) ;
#217 = APPROVAL_STATUS ( 'not_yet_approved' ) ;
#218 = CARTESIAN_POINT ( 'NONE',  ( 1.326762908760390423E-13, 1.199999999999991962, 38.00000000000000000 ) ) ;
#219 = APPROVAL_STATUS ( 'not_yet_approved' ) ;
#220 = ADVANCED_FACE ( 'NONE', ( #148, #3 ), #20, .T. ) ;
#221 = CC_DESIGN_APPROVAL ( #32, ( #77 ) ) ;
#222 = ORIENTED_EDGE ( 'NONE', *, *, #175, .T. ) ;
#223 = EDGE_LOOP ( 'NONE', ( #88 ) ) ;
ENDSEC;
END-ISO-10303-21;
