ISO-10303-21;
HEADER;
FILE_DESCRIPTION (( 'STEP AP203' ),
    '1' );
FILE_NAME ('669.step',
    '2021-12-06T13:00:11',
    ( '' ),
    ( '' ),
    'SwSTEP 2.0',
    'SolidWorks 2019',
    '' );
FILE_SCHEMA (( 'CONFIG_CONTROL_DESIGN' ));
ENDSEC;

DATA;
#1 = CARTESIAN_POINT ( 'NONE',  ( 1.396592535537278783E-15, 3.775030183294694134E-16, 0.4000000000000072942 ) ) ;
#2 = EDGE_CURVE ( 'NONE', #61, #61, #73, .T. ) ;
#3 =( NAMED_UNIT ( * ) PLANE_ANGLE_UNIT ( ) SI_UNIT ( $, .RADIAN. ) );
#4 = DIRECTION ( 'NONE',  ( -3.491481338843133355E-15, -9.437575458236564004E-16, -1.000000000000000000 ) ) ;
#5 = CC_DESIGN_APPROVAL ( #87, ( #70 ) ) ;
#6 = CALENDAR_DATE ( 2021, 6, 12 ) ;
#7 = PERSON_AND_ORGANIZATION_ROLE ( 'design_supplier' ) ;
#8 = DATE_AND_TIME ( #146, #109 ) ;
#9 = EDGE_LOOP ( 'NONE', ( #149 ) ) ;
#10 = ADVANCED_FACE ( 'NONE', ( #13, #124 ), #39, .T. ) ;
#11 = APPROVAL_DATE_TIME ( #8, #56 ) ;
#12 = FACE_OUTER_BOUND ( 'NONE', #160, .T. ) ;
#13 = FACE_BOUND ( 'NONE', #54, .T. ) ;
#14 = DIRECTION ( 'NONE',  ( 3.491481338843133355E-15, 9.437575458236564004E-16, 1.000000000000000000 ) ) ;
#15 = APPROVAL_PERSON_ORGANIZATION ( #117, #87, #31 ) ;
#16 = CARTESIAN_POINT ( 'NONE',  ( 1.037960235785242044E-28, 2.805636661692135969E-29, 2.972836269344517612E-14 ) ) ;
#17 =( GEOMETRIC_REPRESENTATION_CONTEXT ( 3 ) GLOBAL_UNCERTAINTY_ASSIGNED_CONTEXT ( ( #81 ) ) GLOBAL_UNIT_ASSIGNED_CONTEXT ( ( #145, #3, #157 ) ) REPRESENTATION_CONTEXT ( 'NONE', 'WORKASPACE' ) );
#18 = CARTESIAN_POINT ( 'NONE',  ( 1.396592535537252356E-15, 8.000000000000000000, 0.3999999999999997446 ) ) ;
#19 = APPROVAL_ROLE ( '' ) ;
#20 = DIRECTION ( 'NONE',  ( 0.0000000000000000000, 0.0000000000000000000, 1.000000000000000000 ) ) ;
#21 = VERTEX_POINT ( 'NONE', #18 ) ;
#22 = DATE_AND_TIME ( #154, #83 ) ;
#23 = COORDINATED_UNIVERSAL_TIME_OFFSET ( 1, 0, .AHEAD. ) ;
#24 = CC_DESIGN_PERSON_AND_ORGANIZATION_ASSIGNMENT ( #128, #143, ( #147 ) ) ;
#25 = CIRCLE ( 'NONE', #144, 31.50000000000000000 ) ;
#26 = SECURITY_CLASSIFICATION ( '', '', #72 ) ;
#27 = ORIENTED_EDGE ( 'NONE', *, *, #163, .T. ) ;
#28 = DIRECTION ( 'NONE',  ( -3.295111859635689797E-30, 1.000000000000000000, -9.437575458236564004E-16 ) ) ;
#29 = CALENDAR_DATE ( 2021, 6, 12 ) ;
#30 = DIRECTION ( 'NONE',  ( -3.295111859635689797E-30, 1.000000000000000000, -9.437575458236564004E-16 ) ) ;
#31 = APPROVAL_ROLE ( '' ) ;
#32 = DATE_TIME_ROLE ( 'creation_date' ) ;
#33 = CC_DESIGN_PERSON_AND_ORGANIZATION_ASSIGNMENT ( #60, #45, ( #70 ) ) ;
#34 = PERSON_AND_ORGANIZATION_ROLE ( 'design_owner' ) ;
#35 = CARTESIAN_POINT ( 'NONE',  ( 0.0000000000000000000, 0.0000000000000000000, 0.0000000000000000000 ) ) ;
#36 = DIRECTION ( 'NONE',  ( -3.295111859635689797E-30, 1.000000000000000000, -9.437575458236564004E-16 ) ) ;
#37 = ADVANCED_BREP_SHAPE_REPRESENTATION ( '669', ( #101, #46 ), #17 ) ;
#38 = CARTESIAN_POINT ( 'NONE',  ( 2.636089487708551838E-29, 7.125426442392727160E-30, 7.550060366589251203E-15 ) ) ;
#39 = PLANE ( 'NONE',  #64 ) ;
#40 = AXIS2_PLACEMENT_3D ( 'NONE', #38, #161, #36 ) ;
#41 = DIRECTION ( 'NONE',  ( -3.491481338843133355E-15, -9.437575458236564004E-16, -1.000000000000000000 ) ) ;
#42 = LOCAL_TIME ( 14, 0, 11.00000000000000000, #150 ) ;
#43 = CARTESIAN_POINT ( 'NONE',  ( 1.396592535537252356E-15, 31.50000000000000000, 0.3999999999999997446 ) ) ;
#44 = ADVANCED_FACE ( 'NONE', ( #12, #121 ), #168, .F. ) ;
#45 = PERSON_AND_ORGANIZATION_ROLE ( 'creator' ) ;
#46 = AXIS2_PLACEMENT_3D ( 'NONE', #35, #20, #49 ) ;
#47 = DIRECTION ( 'NONE',  ( -3.298155029763141398E-30, 1.000000000000000000, -9.419006373467819770E-16 ) ) ;
#48 = APPROVAL_DATE_TIME ( #165, #87 ) ;
#49 = DIRECTION ( 'NONE',  ( 1.000000000000000000, 0.0000000000000000000, 0.0000000000000000000 ) ) ;
#50 = CIRCLE ( 'NONE', #164, 31.50000000000000000 ) ;
#51 = EDGE_LOOP ( 'NONE', ( #158 ) ) ;
#52 = CARTESIAN_POINT ( 'NONE',  ( 0.0000000000000000000, 0.0000000000000000000, 0.0000000000000000000 ) ) ;
#53 = CARTESIAN_POINT ( 'NONE',  ( 1.396592535537356091E-15, 3.775030183294903675E-16, 0.4000000000000294431 ) ) ;
#54 = EDGE_LOOP ( 'NONE', ( #27 ) ) ;
#55 = DIRECTION ( 'NONE',  ( -3.295480127062603259E-30, 1.000000000000000000, -9.430837944794545911E-16 ) ) ;
#56 = APPROVAL ( #113, 'UNSPECIFIED' ) ;
#57 = PERSON ( 'UNSPECIFIED', 'UNSPECIFIED', 'UNSPECIFIED', ('UNSPECIFIED'), ('UNSPECIFIED'), ('UNSPECIFIED') ) ;
#58 = CC_DESIGN_DATE_AND_TIME_ASSIGNMENT ( #63, #167, ( #26 ) ) ;
#59 = APPLICATION_CONTEXT ( 'configuration controlled 3d designs of mechanical parts and assemblies' ) ;
#60 = PERSON_AND_ORGANIZATION ( #57, #111 ) ;
#61 = VERTEX_POINT ( 'NONE', #102 ) ;
#62 = CIRCLE ( 'NONE', #92, 8.000000000000000000 ) ;
#63 = DATE_AND_TIME ( #29, #42 ) ;
#64 = AXIS2_PLACEMENT_3D ( 'NONE', #90, #14, #76 ) ;
#65 = PLANE ( 'NONE',  #82 ) ;
#66 = CC_DESIGN_PERSON_AND_ORGANIZATION_ASSIGNMENT ( #155, #34, ( #130 ) ) ;
#67 = DIRECTION ( 'NONE',  ( -3.491481338843133355E-15, -9.437575458236564004E-16, -1.000000000000000000 ) ) ;
#68 = ORIENTED_EDGE ( 'NONE', *, *, #123, .F. ) ;
#69 = FACE_OUTER_BOUND ( 'NONE', #122, .T. ) ;
#70 = PRODUCT_DEFINITION ( 'UNKNOWN', '', #147, #153 ) ;
#71 = APPROVAL_DATE_TIME ( #104, #80 ) ;
#72 = SECURITY_CLASSIFICATION_LEVEL ( 'unclassified' ) ;
#73 = CIRCLE ( 'NONE', #40, 8.000000000000000000 ) ;
#74 = APPROVAL_PERSON_ORGANIZATION ( #75, #80, #86 ) ;
#75 = PERSON_AND_ORGANIZATION ( #57, #111 ) ;
#76 = DIRECTION ( 'NONE',  ( 3.295111859635689797E-30, -1.000000000000000000, 9.437575458236564004E-16 ) ) ;
#77 = PERSON_AND_ORGANIZATION ( #57, #111 ) ;
#78 = FACE_BOUND ( 'NONE', #9, .T. ) ;
#79 = DIRECTION ( 'NONE',  ( -3.491481338843133355E-15, -9.437575458236564004E-16, -1.000000000000000000 ) ) ;
#80 = APPROVAL ( #85, 'UNSPECIFIED' ) ;
#81 = UNCERTAINTY_MEASURE_WITH_UNIT (LENGTH_MEASURE( 1.000000000000000082E-05 ), #145, 'distance_accuracy_value', 'NONE');
#82 = AXIS2_PLACEMENT_3D ( 'NONE', #169, #67, #28 ) ;
#83 = LOCAL_TIME ( 14, 0, 11.00000000000000000, #100 ) ;
#84 = COORDINATED_UNIVERSAL_TIME_OFFSET ( 1, 0, .AHEAD. ) ;
#85 = APPROVAL_STATUS ( 'not_yet_approved' ) ;
#86 = APPROVAL_ROLE ( '' ) ;
#87 = APPROVAL ( #88, 'UNSPECIFIED' ) ;
#88 = APPROVAL_STATUS ( 'not_yet_approved' ) ;
#89 = APPROVAL_PERSON_ORGANIZATION ( #77, #56, #19 ) ;
#90 = CARTESIAN_POINT ( 'NONE',  ( 1.396592535537291207E-15, 8.000000000000000000, 0.4000000000000108469 ) ) ;
#91 = FACE_OUTER_BOUND ( 'NONE', #93, .T. ) ;
#92 = AXIS2_PLACEMENT_3D ( 'NONE', #1, #4, #47 ) ;
#93 = EDGE_LOOP ( 'NONE', ( #135 ) ) ;
#94 = ORIENTED_EDGE ( 'NONE', *, *, #107, .T. ) ;
#95 = CARTESIAN_POINT ( 'NONE',  ( 0.0000000000000000000, 0.0000000000000000000, 0.0000000000000000000 ) ) ;
#96 = ADVANCED_FACE ( 'NONE', ( #91, #78 ), #65, .T. ) ;
#97 = LOCAL_TIME ( 14, 0, 11.00000000000000000, #142 ) ;
#98 = APPLICATION_PROTOCOL_DEFINITION ( 'international standard', 'config_control_design', 1994, #103 ) ;
#99 = CC_DESIGN_APPROVAL ( #56, ( #26 ) ) ;
#100 = COORDINATED_UNIVERSAL_TIME_OFFSET ( 1, 0, .AHEAD. ) ;
#101 = MANIFOLD_SOLID_BREP ( 'Corps-Déplacer/Copier1', #138 ) ;
#102 = CARTESIAN_POINT ( 'NONE',  ( 0.0000000000000000000, 8.000000000000000000, 0.0000000000000000000 ) ) ;
#103 = APPLICATION_CONTEXT ( 'configuration controlled 3d designs of mechanical parts and assemblies' ) ;
#104 = DATE_AND_TIME ( #6, #97 ) ;
#105 = VERTEX_POINT ( 'NONE', #43 ) ;
#106 = ORIENTED_EDGE ( 'NONE', *, *, #2, .T. ) ;
#107 = EDGE_CURVE ( 'NONE', #105, #105, #25, .T. ) ;
#108 = DIRECTION ( 'NONE',  ( -3.491481338843133355E-15, -9.437575458236564004E-16, -1.000000000000000000 ) ) ;
#109 = LOCAL_TIME ( 14, 0, 11.00000000000000000, #23 ) ;
#110 = FACE_OUTER_BOUND ( 'NONE', #136, .T. ) ;
#111 = ORGANIZATION ( 'UNSPECIFIED', 'UNSPECIFIED', '' ) ;
#112 = CC_DESIGN_PERSON_AND_ORGANIZATION_ASSIGNMENT ( #129, #156, ( #26 ) ) ;
#113 = APPROVAL_STATUS ( 'not_yet_approved' ) ;
#114 = CARTESIAN_POINT ( 'NONE',  ( -2.189528850507526673E-44, 31.50000000000000000, 0.0000000000000000000 ) ) ;
#115 = CC_DESIGN_APPROVAL ( #80, ( #147 ) ) ;
#116 = CC_DESIGN_PERSON_AND_ORGANIZATION_ASSIGNMENT ( #131, #7, ( #147 ) ) ;
#117 = PERSON_AND_ORGANIZATION ( #57, #111 ) ;
#118 = MECHANICAL_CONTEXT ( 'NONE', #59, 'mechanical' ) ;
#119 = APPLICATION_PROTOCOL_DEFINITION ( 'international standard', 'config_control_design', 1994, #59 ) ;
#120 = AXIS2_PLACEMENT_3D ( 'NONE', #95, #79, #139 ) ;
#121 = FACE_OUTER_BOUND ( 'NONE', #137, .T. ) ;
#122 = EDGE_LOOP ( 'NONE', ( #68 ) ) ;
#123 = EDGE_CURVE ( 'NONE', #126, #126, #50, .T. ) ;
#124 = FACE_OUTER_BOUND ( 'NONE', #51, .T. ) ;
#125 = CYLINDRICAL_SURFACE ( 'NONE', #120, 31.50000000000000000 ) ;
#126 = VERTEX_POINT ( 'NONE', #114 ) ;
#127 = CALENDAR_DATE ( 2021, 6, 12 ) ;
#128 = PERSON_AND_ORGANIZATION ( #57, #111 ) ;
#129 = PERSON_AND_ORGANIZATION ( #57, #111 ) ;
#130 = PRODUCT ( '669', '669', '', ( #118 ) ) ;
#131 = PERSON_AND_ORGANIZATION ( #57, #111 ) ;
#132 = ADVANCED_FACE ( 'NONE', ( #110, #69 ), #125, .T. ) ;
#133 = AXIS2_PLACEMENT_3D ( 'NONE', #52, #108, #159 ) ;
#134 = CC_DESIGN_SECURITY_CLASSIFICATION ( #26, ( #147 ) ) ;
#135 = ORIENTED_EDGE ( 'NONE', *, *, #123, .T. ) ;
#136 = EDGE_LOOP ( 'NONE', ( #94 ) ) ;
#137 = EDGE_LOOP ( 'NONE', ( #151 ) ) ;
#138 = CLOSED_SHELL ( 'NONE', ( #96, #132, #10, #44 ) ) ;
#139 = DIRECTION ( 'NONE',  ( -3.295111859635689797E-30, 1.000000000000000000, -9.437575458236564004E-16 ) ) ;
#140 = LOCAL_TIME ( 14, 0, 11.00000000000000000, #84 ) ;
#141 = PRODUCT_RELATED_PRODUCT_CATEGORY ( 'detail', '', ( #130 ) ) ;
#142 = COORDINATED_UNIVERSAL_TIME_OFFSET ( 1, 0, .AHEAD. ) ;
#143 = PERSON_AND_ORGANIZATION_ROLE ( 'creator' ) ;
#144 = AXIS2_PLACEMENT_3D ( 'NONE', #53, #162, #55 ) ;
#145 =( LENGTH_UNIT ( ) NAMED_UNIT ( * ) SI_UNIT ( .MILLI., .METRE. ) );
#146 = CALENDAR_DATE ( 2021, 6, 12 ) ;
#147 = PRODUCT_DEFINITION_FORMATION_WITH_SPECIFIED_SOURCE ( 'ANY', '', #130, .NOT_KNOWN. ) ;
#148 = CC_DESIGN_DATE_AND_TIME_ASSIGNMENT ( #22, #32, ( #70 ) ) ;
#149 = ORIENTED_EDGE ( 'NONE', *, *, #2, .F. ) ;
#150 = COORDINATED_UNIVERSAL_TIME_OFFSET ( 1, 0, .AHEAD. ) ;
#151 = ORIENTED_EDGE ( 'NONE', *, *, #163, .F. ) ;
#152 = PRODUCT_DEFINITION_SHAPE ( 'NONE', 'NONE',  #70 ) ;
#153 = DESIGN_CONTEXT ( 'detailed design', #103, 'design' ) ;
#154 = CALENDAR_DATE ( 2021, 6, 12 ) ;
#155 = PERSON_AND_ORGANIZATION ( #57, #111 ) ;
#156 = PERSON_AND_ORGANIZATION_ROLE ( 'classification_officer' ) ;
#157 =( NAMED_UNIT ( * ) SI_UNIT ( $, .STERADIAN. ) SOLID_ANGLE_UNIT ( ) );
#158 = ORIENTED_EDGE ( 'NONE', *, *, #107, .F. ) ;
#159 = DIRECTION ( 'NONE',  ( -3.295111859635689797E-30, 1.000000000000000000, -9.437575458236564004E-16 ) ) ;
#160 = EDGE_LOOP ( 'NONE', ( #106 ) ) ;
#161 = DIRECTION ( 'NONE',  ( -3.491481338843133355E-15, -9.437575458236564004E-16, -1.000000000000000000 ) ) ;
#162 = DIRECTION ( 'NONE',  ( -3.491481338843133355E-15, -9.437575458236564004E-16, -1.000000000000000000 ) ) ;
#163 = EDGE_CURVE ( 'NONE', #21, #21, #62, .T. ) ;
#164 = AXIS2_PLACEMENT_3D ( 'NONE', #16, #41, #30 ) ;
#165 = DATE_AND_TIME ( #127, #140 ) ;
#166 = SHAPE_DEFINITION_REPRESENTATION ( #152, #37 ) ;
#167 = DATE_TIME_ROLE ( 'classification_date' ) ;
#168 = CYLINDRICAL_SURFACE ( 'NONE', #133, 8.000000000000000000 ) ;
#169 = CARTESIAN_POINT ( 'NONE',  ( 3.871756435071935704E-29, 8.000000000000000000, 1.108915116342796325E-14 ) ) ;
ENDSEC;
END-ISO-10303-21;
