ISO-10303-21;
HEADER;
FILE_DESCRIPTION (( 'STEP AP203' ),
    '1' );
FILE_NAME ('66799.step',
    '2021-11-01T10:35:31',
    ( '' ),
    ( '' ),
    'SwSTEP 2.0',
    'SolidWorks 2019',
    '' );
FILE_SCHEMA (( 'CONFIG_CONTROL_DESIGN' ));
ENDSEC;

DATA;
#1 = CALENDAR_DATE ( 2021, 1, 11 ) ;
#2 = AXIS2_PLACEMENT_3D ( 'NONE', #65, #156, #105 ) ;
#3 = ORIENTED_EDGE ( 'NONE', *, *, #43, .T. ) ;
#4 = AXIS2_PLACEMENT_3D ( 'NONE', #155, #234, #63 ) ;
#5 = ORIENTED_EDGE ( 'NONE', *, *, #118, .F. ) ;
#6 = ORIENTED_EDGE ( 'NONE', *, *, #137, .T. ) ;
#7 = CC_DESIGN_APPROVAL ( #83, ( #109 ) ) ;
#8 = ORIENTED_EDGE ( 'NONE', *, *, #149, .F. ) ;
#9 = DIRECTION ( 'NONE',  ( 3.491481338843133355E-15, -1.224646799147353207E-16, 1.000000000000000000 ) ) ;
#10 = CARTESIAN_POINT ( 'NONE',  ( 2.363230401556606323E-14, -8.252520042980146532E-16, 6.768560883500636116 ) ) ;
#11 = DIRECTION ( 'NONE',  ( 0.0000000000000000000, 1.000000000000000000, 0.0000000000000000000 ) ) ;
#12 = CC_DESIGN_DATE_AND_TIME_ASSIGNMENT ( #159, #240, ( #109 ) ) ;
#13 = DIRECTION ( 'NONE',  ( 0.0000000000000000000, -1.000000000000000000, 0.0000000000000000000 ) ) ;
#14 = ADVANCED_FACE ( 'NONE', ( #204 ), #114, .F. ) ;
#15 = CARTESIAN_POINT ( 'NONE',  ( 1.326762908760390423E-13, 8.998558695971047118E-33, 38.00000000000000000 ) ) ;
#16 = CLOSED_SHELL ( 'NONE', ( #192, #64, #14 ) ) ;
#17 = LOCAL_TIME ( 11, 35, 31.00000000000000000, #138 ) ;
#18 = PERSON_AND_ORGANIZATION ( #236, #154 ) ;
#19 = CARTESIAN_POINT ( 'NONE',  ( 2.363230401556606323E-14, -1.499999999999995559, 6.768560883500636116 ) ) ;
#20 = APPROVAL_STATUS ( 'not_yet_approved' ) ;
#21 = CC_DESIGN_SECURITY_CLASSIFICATION ( #109, ( #116 ) ) ;
#22 = APPLICATION_PROTOCOL_DEFINITION ( 'international standard', 'config_control_design', 1994, #104 ) ;
#23 = ORIENTED_EDGE ( 'NONE', *, *, #43, .F. ) ;
#24 = EDGE_LOOP ( 'NONE', ( #102 ) ) ;
#25 = EDGE_LOOP ( 'NONE', ( #167 ) ) ;
#26 = EDGE_LOOP ( 'NONE', ( #23 ) ) ;
#27 = CIRCLE ( 'NONE', #51, 1.499999999999994671 ) ;
#28 = DIRECTION ( 'NONE',  ( 3.491481338843133355E-15, -1.219242935835426903E-16, 1.000000000000000000 ) ) ;
#29 = CARTESIAN_POINT ( 'NONE',  ( -8.551680453529350800E-31, 2.999525725151307090E-32, -2.449298628175645296E-16 ) ) ;
#30 = DIRECTION ( 'NONE',  ( 4.275831445896958607E-31, 1.000000000000000000, 1.224646799147352961E-16 ) ) ;
#31 = DIRECTION ( 'NONE',  ( 0.0000000000000000000, -1.000000000000000000, 0.0000000000000000000 ) ) ;
#32 = DIRECTION ( 'NONE',  ( 4.275831445896958607E-31, 1.000000000000000000, 1.224646799147353207E-16 ) ) ;
#33 = SHAPE_DEFINITION_REPRESENTATION ( #79, #140 ) ;
#34 = LOCAL_TIME ( 11, 35, 31.00000000000000000, #96 ) ;
#35 =( LENGTH_UNIT ( ) NAMED_UNIT ( * ) SI_UNIT ( .MILLI., .METRE. ) );
#36 = EDGE_CURVE ( 'NONE', #215, #215, #143, .T. ) ;
#37 = CALENDAR_DATE ( 2021, 1, 11 ) ;
#38 = APPROVAL_STATUS ( 'not_yet_approved' ) ;
#39 = DIRECTION ( 'NONE',  ( 0.0000000000000000000, -1.000000000000000000, 0.0000000000000000000 ) ) ;
#40 = AXIS2_PLACEMENT_3D ( 'NONE', #120, #160, #49 ) ;
#41 = EDGE_LOOP ( 'NONE', ( #81 ) ) ;
#42 =( GEOMETRIC_REPRESENTATION_CONTEXT ( 3 ) GLOBAL_UNCERTAINTY_ASSIGNED_CONTEXT ( ( #151 ) ) GLOBAL_UNIT_ASSIGNED_CONTEXT ( ( #35, #162, #179 ) ) REPRESENTATION_CONTEXT ( 'NONE', 'WORKASPACE' ) );
#43 = EDGE_CURVE ( 'NONE', #53, #53, #177, .T. ) ;
#44 = DIRECTION ( 'NONE',  ( 3.491481338843133355E-15, -1.219242935835426903E-16, 1.000000000000000000 ) ) ;
#45 = AXIS2_PLACEMENT_3D ( 'NONE', #237, #28, #88 ) ;
#46 = DIRECTION ( 'NONE',  ( -3.491481338843133355E-15, 1.224646799147353207E-16, -1.000000000000000000 ) ) ;
#47 = DIRECTION ( 'NONE',  ( 3.491481338843133355E-15, -1.219242935835426903E-16, 1.000000000000000000 ) ) ;
#48 = CC_DESIGN_DATE_AND_TIME_ASSIGNMENT ( #76, #127, ( #231 ) ) ;
#49 = DIRECTION ( 'NONE',  ( -4.256963957985708889E-31, -1.000000000000000000, -1.219242935835426903E-16 ) ) ;
#50 = CC_DESIGN_PERSON_AND_ORGANIZATION_ASSIGNMENT ( #125, #73, ( #148 ) ) ;
#51 = AXIS2_PLACEMENT_3D ( 'NONE', #10, #91, #13 ) ;
#52 = FACE_OUTER_BOUND ( 'NONE', #226, .T. ) ;
#53 = VERTEX_POINT ( 'NONE', #242 ) ;
#54 = APPROVAL_PERSON_ORGANIZATION ( #99, #182, #110 ) ;
#55 = VERTEX_POINT ( 'NONE', #95 ) ;
#56 = CC_DESIGN_PERSON_AND_ORGANIZATION_ASSIGNMENT ( #219, #66, ( #109 ) ) ;
#57 = VERTEX_POINT ( 'NONE', #145 ) ;
#58 = ADVANCED_FACE ( 'NONE', ( #191, #190 ), #205, .F. ) ;
#59 = DATE_AND_TIME ( #1, #92 ) ;
#60 = AXIS2_PLACEMENT_3D ( 'NONE', #175, #197, #119 ) ;
#61 = FACE_OUTER_BOUND ( 'NONE', #152, .T. ) ;
#62 = FACE_OUTER_BOUND ( 'NONE', #232, .T. ) ;
#63 = DIRECTION ( 'NONE',  ( 0.0000000000000000000, 1.000000000000000000, 0.0000000000000000000 ) ) ;
#64 = ADVANCED_FACE ( 'NONE', ( #61, #52 ), #158, .T. ) ;
#65 = CARTESIAN_POINT ( 'NONE',  ( 8.379555213223516897E-15, -4.336808689942017736E-16, 2.399999999999999467 ) ) ;
#66 = PERSON_AND_ORGANIZATION_ROLE ( 'classification_officer' ) ;
#67 = DIRECTION ( 'NONE',  ( -3.491481338843133355E-15, 1.224646799147353207E-16, -1.000000000000000000 ) ) ;
#68 = AXIS2_PLACEMENT_3D ( 'NONE', #134, #121, #11 ) ;
#69 = CIRCLE ( 'NONE', #4, 1.199999999999995959 ) ;
#70 = DATE_AND_TIME ( #238, #34 ) ;
#71 = COORDINATED_UNIVERSAL_TIME_OFFSET ( 1, 0, .AHEAD. ) ;
#72 = MANIFOLD_SOLID_BREP ( 'Corps-Déplacer/Copier1[2]', #16 ) ;
#73 = PERSON_AND_ORGANIZATION_ROLE ( 'design_owner' ) ;
#74 = AXIS2_PLACEMENT_3D ( 'NONE', #108, #67, #30 ) ;
#75 = APPROVAL_DATE_TIME ( #70, #83 ) ;
#76 = DATE_AND_TIME ( #146, #228 ) ;
#77 = DIRECTION ( 'NONE',  ( 1.000000000000000000, 0.0000000000000000000, 0.0000000000000000000 ) ) ;
#78 = PERSON_AND_ORGANIZATION ( #236, #154 ) ;
#79 = PRODUCT_DEFINITION_SHAPE ( 'NONE', 'NONE',  #231 ) ;
#80 = AXIS2_PLACEMENT_3D ( 'NONE', #189, #47, #210 ) ;
#81 = ORIENTED_EDGE ( 'NONE', *, *, #149, .T. ) ;
#82 = ORIENTED_EDGE ( 'NONE', *, *, #36, .F. ) ;
#83 = APPROVAL ( #38, 'UNSPECIFIED' ) ;
#84 = ADVANCED_FACE ( 'NONE', ( #131, #85 ), #171, .T. ) ;
#85 = FACE_OUTER_BOUND ( 'NONE', #203, .T. ) ;
#86 = DIRECTION ( 'NONE',  ( -4.275831445896958607E-31, -1.000000000000000000, -1.224646799147353207E-16 ) ) ;
#87 = AXIS2_PLACEMENT_3D ( 'NONE', #233, #195, #31 ) ;
#88 = DIRECTION ( 'NONE',  ( 0.0000000000000000000, -1.000000000000000000, 0.0000000000000000000 ) ) ;
#89 = FACE_BOUND ( 'NONE', #184, .T. ) ;
#90 = SECURITY_CLASSIFICATION_LEVEL ( 'unclassified' ) ;
#91 = DIRECTION ( 'NONE',  ( -3.491481338843133355E-15, 1.219242935835426903E-16, -1.000000000000000000 ) ) ;
#92 = LOCAL_TIME ( 11, 35, 31.00000000000000000, #71 ) ;
#93 = FACE_OUTER_BOUND ( 'NONE', #41, .T. ) ;
#94 = APPROVAL_ROLE ( '' ) ;
#95 = CARTESIAN_POINT ( 'NONE',  ( 8.379555213223516897E-15, -0.3999999999999998557, 2.399999999999999467 ) ) ;
#96 = COORDINATED_UNIVERSAL_TIME_OFFSET ( 1, 0, .AHEAD. ) ;
#97 = APPROVAL_PERSON_ORGANIZATION ( #202, #180, #98 ) ;
#98 = APPROVAL_ROLE ( '' ) ;
#99 = PERSON_AND_ORGANIZATION ( #236, #154 ) ;
#100 = EDGE_LOOP ( 'NONE', ( #6 ) ) ;
#101 = CC_DESIGN_PERSON_AND_ORGANIZATION_ASSIGNMENT ( #78, #147, ( #116 ) ) ;
#102 = ORIENTED_EDGE ( 'NONE', *, *, #137, .F. ) ;
#103 = ADVANCED_FACE ( 'NONE', ( #117 ), #170, .F. ) ;
#104 = APPLICATION_CONTEXT ( 'configuration controlled 3d designs of mechanical parts and assemblies' ) ;
#105 = DIRECTION ( 'NONE',  ( -4.317316899811299520E-31, -1.000000000000000000, -1.219242935835426903E-16 ) ) ;
#106 = PLANE ( 'NONE',  #206 ) ;
#107 = CARTESIAN_POINT ( 'NONE',  ( 1.316288464743861212E-13, -4.616918432785521081E-15, 37.69999999999999574 ) ) ;
#108 = CARTESIAN_POINT ( 'NONE',  ( 0.0000000000000000000, 0.0000000000000000000, 0.0000000000000000000 ) ) ;
#109 = SECURITY_CLASSIFICATION ( '', '', #90 ) ;
#110 = APPROVAL_ROLE ( '' ) ;
#111 = DIRECTION ( 'NONE',  ( 0.0000000000000000000, 0.0000000000000000000, 1.000000000000000000 ) ) ;
#112 = CARTESIAN_POINT ( 'NONE',  ( 0.0000000000000000000, 0.0000000000000000000, 0.0000000000000000000 ) ) ;
#113 = AXIS2_PLACEMENT_3D ( 'NONE', #214, #44, #174 ) ;
#114 = PLANE ( 'NONE',  #150 ) ;
#115 = CLOSED_SHELL ( 'NONE', ( #84, #153, #103, #241, #58, #221 ) ) ;
#116 = PRODUCT_DEFINITION_FORMATION_WITH_SPECIFIED_SOURCE ( 'ANY', '', #148, .NOT_KNOWN. ) ;
#117 = FACE_OUTER_BOUND ( 'NONE', #24, .T. ) ;
#118 = EDGE_CURVE ( 'NONE', #124, #124, #243, .T. ) ;
#119 = DIRECTION ( 'NONE',  ( -4.275831445896958607E-31, -1.000000000000000000, -1.224646799147353207E-16 ) ) ;
#120 = CARTESIAN_POINT ( 'NONE',  ( 0.0000000000000000000, 0.0000000000000000000, 0.0000000000000000000 ) ) ;
#121 = DIRECTION ( 'NONE',  ( -3.491481338843133355E-15, 1.224646799147353207E-16, -1.000000000000000000 ) ) ;
#122 = APPLICATION_CONTEXT ( 'configuration controlled 3d designs of mechanical parts and assemblies' ) ;
#123 = PERSON_AND_ORGANIZATION_ROLE ( 'design_supplier' ) ;
#124 = VERTEX_POINT ( 'NONE', #183 ) ;
#125 = PERSON_AND_ORGANIZATION ( #236, #154 ) ;
#126 = APPROVAL_STATUS ( 'not_yet_approved' ) ;
#127 = DATE_TIME_ROLE ( 'creation_date' ) ;
#128 = EDGE_LOOP ( 'NONE', ( #168 ) ) ;
#129 = EDGE_LOOP ( 'NONE', ( #169 ) ) ;
#130 = ORIENTED_EDGE ( 'NONE', *, *, #207, .F. ) ;
#131 = FACE_OUTER_BOUND ( 'NONE', #185, .T. ) ;
#132 = CONICAL_SURFACE ( 'NONE', #68, 1.199999999999995959, 0.7853981633974468357 ) ;
#133 = PLANE ( 'NONE',  #60 ) ;
#134 = CARTESIAN_POINT ( 'NONE',  ( 1.326762908760390423E-13, -4.653657836759941941E-15, 38.00000000000000000 ) ) ;
#135 = CARTESIAN_POINT ( 'NONE',  ( 8.379555213223518475E-15, 1.124819836996387185E-32, 2.399999999999999911 ) ) ;
#136 = FACE_OUTER_BOUND ( 'NONE', #25, .T. ) ;
#137 = EDGE_CURVE ( 'NONE', #57, #57, #69, .T. ) ;
#138 = COORDINATED_UNIVERSAL_TIME_OFFSET ( 1, 0, .AHEAD. ) ;
#139 = PERSON_AND_ORGANIZATION_ROLE ( 'creator' ) ;
#140 = ADVANCED_BREP_SHAPE_REPRESENTATION ( '66799', ( #229, #72, #209 ), #42 ) ;
#141 = VERTEX_POINT ( 'NONE', #19 ) ;
#142 = CARTESIAN_POINT ( 'NONE',  ( 3.666268976580760050E-14, -1.280279662628752386E-15, 10.50061169106961501 ) ) ;
#143 = CIRCLE ( 'NONE', #45, 0.3999999999999995781 ) ;
#144 = CIRCLE ( 'NONE', #113, 0.4681483474218601781 ) ;
#145 = CARTESIAN_POINT ( 'NONE',  ( 1.326762908760390423E-13, 1.199999999999991518, 38.00000000000000000 ) ) ;
#146 = CALENDAR_DATE ( 2021, 1, 11 ) ;
#147 = PERSON_AND_ORGANIZATION_ROLE ( 'creator' ) ;
#148 = PRODUCT ( '66799', '66799', '', ( #217 ) ) ;
#149 = EDGE_CURVE ( 'NONE', #141, #141, #27, .T. ) ;
#150 = AXIS2_PLACEMENT_3D ( 'NONE', #29, #9, #86 ) ;
#151 = UNCERTAINTY_MEASURE_WITH_UNIT (LENGTH_MEASURE( 1.000000000000000082E-05 ), #35, 'distance_accuracy_value', 'NONE');
#152 = EDGE_LOOP ( 'NONE', ( #3 ) ) ;
#153 = ADVANCED_FACE ( 'NONE', ( #208, #211 ), #132, .T. ) ;
#154 = ORGANIZATION ( 'UNSPECIFIED', 'UNSPECIFIED', '' ) ;
#155 = CARTESIAN_POINT ( 'NONE',  ( 1.326762908760390423E-13, -4.653657836759941941E-15, 38.00000000000000000 ) ) ;
#156 = DIRECTION ( 'NONE',  ( 3.491481338843133355E-15, -1.219242935835426903E-16, 1.000000000000000000 ) ) ;
#157 = DIRECTION ( 'NONE',  ( -3.491481338843133355E-15, 1.224646799147353207E-16, -1.000000000000000000 ) ) ;
#158 = CYLINDRICAL_SURFACE ( 'NONE', #40, 0.3999999999999997446 ) ;
#159 = DATE_AND_TIME ( #196, #17 ) ;
#160 = DIRECTION ( 'NONE',  ( 3.491481338843133355E-15, -1.219242935835426903E-16, 1.000000000000000000 ) ) ;
#161 = CIRCLE ( 'NONE', #87, 0.3999999999999995781 ) ;
#162 =( NAMED_UNIT ( * ) PLANE_ANGLE_UNIT ( ) SI_UNIT ( $, .RADIAN. ) );
#163 = COORDINATED_UNIVERSAL_TIME_OFFSET ( 1, 0, .AHEAD. ) ;
#164 = PRODUCT_RELATED_PRODUCT_CATEGORY ( 'detail', '', ( #148 ) ) ;
#165 = APPROVAL_DATE_TIME ( #59, #180 ) ;
#166 = DESIGN_CONTEXT ( 'detailed design', #122, 'design' ) ;
#167 = ORIENTED_EDGE ( 'NONE', *, *, #36, .T. ) ;
#168 = ORIENTED_EDGE ( 'NONE', *, *, #207, .T. ) ;
#169 = ORIENTED_EDGE ( 'NONE', *, *, #188, .F. ) ;
#170 = PLANE ( 'NONE',  #172 ) ;
#171 = CYLINDRICAL_SURFACE ( 'NONE', #74, 1.499999999999994671 ) ;
#172 = AXIS2_PLACEMENT_3D ( 'NONE', #15, #157, #32 ) ;
#173 = CC_DESIGN_APPROVAL ( #180, ( #116 ) ) ;
#174 = DIRECTION ( 'NONE',  ( 0.0000000000000000000, -1.000000000000000000, 0.0000000000000000000 ) ) ;
#175 = CARTESIAN_POINT ( 'NONE',  ( 8.379555213223518475E-15, 1.124819836996387185E-32, 2.399999999999999911 ) ) ;
#176 = DIRECTION ( 'NONE',  ( 0.0000000000000000000, 1.000000000000000000, 0.0000000000000000000 ) ) ;
#177 = CIRCLE ( 'NONE', #80, 0.3999999999999999667 ) ;
#178 = CONICAL_SURFACE ( 'NONE', #213, 2.499999999999995559, 0.2617993877991429130 ) ;
#179 =( NAMED_UNIT ( * ) SI_UNIT ( $, .STERADIAN. ) SOLID_ANGLE_UNIT ( ) );
#180 = APPROVAL ( #20, 'UNSPECIFIED' ) ;
#181 = APPROVAL_DATE_TIME ( #239, #182 ) ;
#182 = APPROVAL ( #126, 'UNSPECIFIED' ) ;
#183 = CARTESIAN_POINT ( 'NONE',  ( 1.316288464743861212E-13, 1.499999999999992228, 37.69999999999999574 ) ) ;
#184 = EDGE_LOOP ( 'NONE', ( #230 ) ) ;
#185 = EDGE_LOOP ( 'NONE', ( #225 ) ) ;
#186 = EDGE_LOOP ( 'NONE', ( #5 ) ) ;
#187 = CC_DESIGN_APPROVAL ( #182, ( #231 ) ) ;
#188 = EDGE_CURVE ( 'NONE', #198, #198, #144, .T. ) ;
#189 = CARTESIAN_POINT ( 'NONE',  ( -2.521989365909838646E-30, 8.806914373073754917E-32, -7.223264629406480293E-16 ) ) ;
#190 = FACE_OUTER_BOUND ( 'NONE', #129, .T. ) ;
#191 = FACE_OUTER_BOUND ( 'NONE', #128, .T. ) ;
#192 = ADVANCED_FACE ( 'NONE', ( #136 ), #106, .T. ) ;
#193 = AXIS2_PLACEMENT_3D ( 'NONE', #107, #46, #176 ) ;
#194 = LOCAL_TIME ( 11, 35, 31.00000000000000000, #200 ) ;
#195 = DIRECTION ( 'NONE',  ( 3.491481338843133355E-15, -1.219242935835426903E-16, 1.000000000000000000 ) ) ;
#196 = CALENDAR_DATE ( 2021, 1, 11 ) ;
#197 = DIRECTION ( 'NONE',  ( 3.491481338843133355E-15, -1.224646799147353207E-16, 1.000000000000000000 ) ) ;
#198 = VERTEX_POINT ( 'NONE', #220 ) ;
#199 = APPLICATION_PROTOCOL_DEFINITION ( 'international standard', 'config_control_design', 1994, #122 ) ;
#200 = COORDINATED_UNIVERSAL_TIME_OFFSET ( 1, 0, .AHEAD. ) ;
#201 = CC_DESIGN_PERSON_AND_ORGANIZATION_ASSIGNMENT ( #223, #123, ( #116 ) ) ;
#202 = PERSON_AND_ORGANIZATION ( #236, #154 ) ;
#203 = EDGE_LOOP ( 'NONE', ( #8 ) ) ;
#204 = FACE_OUTER_BOUND ( 'NONE', #26, .T. ) ;
#205 = TOROIDAL_SURFACE ( 'NONE', #2, 2.400000000000000355, 2.000000000000000000 ) ;
#206 = AXIS2_PLACEMENT_3D ( 'NONE', #135, #235, #212 ) ;
#207 = EDGE_CURVE ( 'NONE', #55, #55, #161, .T. ) ;
#208 = FACE_OUTER_BOUND ( 'NONE', #186, .T. ) ;
#209 = AXIS2_PLACEMENT_3D ( 'NONE', #112, #111, #77 ) ;
#210 = DIRECTION ( 'NONE',  ( -4.256963957985706261E-31, -1.000000000000000000, -1.219242935835425917E-16 ) ) ;
#211 = FACE_BOUND ( 'NONE', #100, .T. ) ;
#212 = DIRECTION ( 'NONE',  ( -4.275831445896958607E-31, -1.000000000000000000, -1.224646799147353207E-16 ) ) ;
#213 = AXIS2_PLACEMENT_3D ( 'NONE', #142, #222, #39 ) ;
#214 = CARTESIAN_POINT ( 'NONE',  ( 1.018687894544877643E-14, -3.557309630806847409E-16, 2.917638090205028512 ) ) ;
#215 = VERTEX_POINT ( 'NONE', #218 ) ;
#216 = PERSON_AND_ORGANIZATION ( #236, #154 ) ;
#217 = MECHANICAL_CONTEXT ( 'NONE', #104, 'mechanical' ) ;
#218 = CARTESIAN_POINT ( 'NONE',  ( 8.379555213223516897E-15, -0.3999999999999998557, 2.399999999999999467 ) ) ;
#219 = PERSON_AND_ORGANIZATION ( #236, #154 ) ;
#220 = CARTESIAN_POINT ( 'NONE',  ( 1.018687894544877643E-14, -0.4681483474218605112, 2.917638090205028512 ) ) ;
#221 = ADVANCED_FACE ( 'NONE', ( #62 ), #133, .F. ) ;
#222 = DIRECTION ( 'NONE',  ( 3.491481338843133355E-15, -1.219242935835426903E-16, 1.000000000000000000 ) ) ;
#223 = PERSON_AND_ORGANIZATION ( #236, #154 ) ;
#224 = APPROVAL_PERSON_ORGANIZATION ( #216, #83, #94 ) ;
#225 = ORIENTED_EDGE ( 'NONE', *, *, #118, .T. ) ;
#226 = EDGE_LOOP ( 'NONE', ( #82 ) ) ;
#227 = CC_DESIGN_PERSON_AND_ORGANIZATION_ASSIGNMENT ( #18, #139, ( #231 ) ) ;
#228 = LOCAL_TIME ( 11, 35, 31.00000000000000000, #163 ) ;
#229 = MANIFOLD_SOLID_BREP ( 'Corps-Déplacer/Copier1[1]', #115 ) ;
#230 = ORIENTED_EDGE ( 'NONE', *, *, #188, .T. ) ;
#231 = PRODUCT_DEFINITION ( 'UNKNOWN', '', #116, #166 ) ;
#232 = EDGE_LOOP ( 'NONE', ( #130 ) ) ;
#233 = CARTESIAN_POINT ( 'NONE',  ( 8.379555213223516897E-15, -2.926183046005023679E-16, 2.399999999999999467 ) ) ;
#234 = DIRECTION ( 'NONE',  ( -3.491481338843133355E-15, 1.224646799147353207E-16, -1.000000000000000000 ) ) ;
#235 = DIRECTION ( 'NONE',  ( 3.491481338843133355E-15, -1.224646799147353207E-16, 1.000000000000000000 ) ) ;
#236 = PERSON ( 'UNSPECIFIED', 'UNSPECIFIED', 'UNSPECIFIED', ('UNSPECIFIED'), ('UNSPECIFIED'), ('UNSPECIFIED') ) ;
#237 = CARTESIAN_POINT ( 'NONE',  ( 8.379555213223516897E-15, -2.926183046005023679E-16, 2.399999999999999467 ) ) ;
#238 = CALENDAR_DATE ( 2021, 1, 11 ) ;
#239 = DATE_AND_TIME ( #37, #194 ) ;
#240 = DATE_TIME_ROLE ( 'classification_date' ) ;
#241 = ADVANCED_FACE ( 'NONE', ( #89, #93 ), #178, .T. ) ;
#242 = CARTESIAN_POINT ( 'NONE',  ( -2.692267924229267106E-30, -0.3999999999999999667, -7.710961803740650659E-16 ) ) ;
#243 = CIRCLE ( 'NONE', #193, 1.499999999999996669 ) ;
ENDSEC;
END-ISO-10303-21;
