ISO-10303-21;
HEADER;
FILE_DESCRIPTION (( 'STEP AP203' ),
    '1' );
FILE_NAME ('66798.step',
    '2021-11-01T10:35:30',
    ( '' ),
    ( '' ),
    'SwSTEP 2.0',
    'SolidWorks 2019',
    '' );
FILE_SCHEMA (( 'CONFIG_CONTROL_DESIGN' ));
ENDSEC;

DATA;
#1 = CARTESIAN_POINT ( 'NONE',  ( 1.990144363140585697E-14, -0.9500000000000007327, 5.699999999999998401 ) ) ;
#2 = FACE_OUTER_BOUND ( 'NONE', #40, .T. ) ;
#3 = APPROVAL_STATUS ( 'not_yet_approved' ) ;
#4 = DATE_TIME_ROLE ( 'creation_date' ) ;
#5 = PERSON_AND_ORGANIZATION_ROLE ( 'creator' ) ;
#6 = AXIS2_PLACEMENT_3D ( 'NONE', #46, #137, #78 ) ;
#7 = APPROVAL ( #20, 'UNSPECIFIED' ) ;
#8 = AXIS2_PLACEMENT_3D ( 'NONE', #195, #85, #14 ) ;
#9 = MECHANICAL_CONTEXT ( 'NONE', #24, 'mechanical' ) ;
#10 = ADVANCED_FACE ( 'NONE', ( #220, #12 ), #178, .T. ) ;
#11 = ORIENTED_EDGE ( 'NONE', *, *, #188, .F. ) ;
#12 = FACE_BOUND ( 'NONE', #25, .T. ) ;
#13 = EDGE_LOOP ( 'NONE', ( #60 ) ) ;
#14 = DIRECTION ( 'NONE',  ( 0.0000000000000000000, 1.000000000000000000, 0.0000000000000000000 ) ) ;
#15 = DIRECTION ( 'NONE',  ( 3.491481338843133355E-15, -1.224646799147353207E-16, 1.000000000000000000 ) ) ;
#16 = DATE_AND_TIME ( #49, #183 ) ;
#17 = CARTESIAN_POINT ( 'NONE',  ( -6.413731847436034514E-31, 0.0000000000000000000, -1.836965810494968570E-16 ) ) ;
#18 = CIRCLE ( 'NONE', #67, 0.9500000000000000666 ) ;
#19 = CARTESIAN_POINT ( 'NONE',  ( 1.990144363140585697E-14, -0.9500000000000007327, 5.699999999999998401 ) ) ;
#20 = APPROVAL_STATUS ( 'not_yet_approved' ) ;
#21 = PERSON_AND_ORGANIZATION_ROLE ( 'classification_officer' ) ;
#22 = APPROVAL_DATE_TIME ( #205, #84 ) ;
#23 = PRODUCT_DEFINITION_SHAPE ( 'NONE', 'NONE',  #52 ) ;
#24 = APPLICATION_CONTEXT ( 'configuration controlled 3d designs of mechanical parts and assemblies' ) ;
#25 = EDGE_LOOP ( 'NONE', ( #97 ) ) ;
#26 = AXIS2_PLACEMENT_3D ( 'NONE', #114, #66, #135 ) ;
#27 = EDGE_LOOP ( 'NONE', ( #77 ) ) ;
#28 = DIRECTION ( 'NONE',  ( 0.0000000000000000000, -1.000000000000000000, 0.0000000000000000000 ) ) ;
#29 = PRODUCT_RELATED_PRODUCT_CATEGORY ( 'detail', '', ( #31 ) ) ;
#30 = FACE_OUTER_BOUND ( 'NONE', #76, .T. ) ;
#31 = PRODUCT ( '66798', '66798', '', ( #9 ) ) ;
#32 = ADVANCED_FACE ( 'NONE', ( #96, #158 ), #194, .T. ) ;
#33 = VERTEX_POINT ( 'NONE', #79 ) ;
#34 = CARTESIAN_POINT ( 'NONE',  ( 1.326762908760390423E-13, -4.653657836759941941E-15, 38.00000000000000000 ) ) ;
#35 = LOCAL_TIME ( 11, 35, 30.00000000000000000, #103 ) ;
#36 = VERTEX_POINT ( 'NONE', #120 ) ;
#37 = PERSON ( 'UNSPECIFIED', 'UNSPECIFIED', 'UNSPECIFIED', ('UNSPECIFIED'), ('UNSPECIFIED'), ('UNSPECIFIED') ) ;
#38 = PERSON_AND_ORGANIZATION_ROLE ( 'creator' ) ;
#39 = CIRCLE ( 'NONE', #148, 0.9500000000000000666 ) ;
#40 = EDGE_LOOP ( 'NONE', ( #59 ) ) ;
#41 = CLOSED_SHELL ( 'NONE', ( #161, #10, #206, #117, #172 ) ) ;
#42 = CC_DESIGN_SECURITY_CLASSIFICATION ( #110, ( #174 ) ) ;
#43 = CC_DESIGN_PERSON_AND_ORGANIZATION_ASSIGNMENT ( #166, #38, ( #52 ) ) ;
#44 = EDGE_LOOP ( 'NONE', ( #156 ) ) ;
#45 = EDGE_CURVE ( 'NONE', #33, #33, #132, .T. ) ;
#46 = CARTESIAN_POINT ( 'NONE',  ( -4.071562780247867813E-31, -8.234482691091621164E-33, -1.166141928055367692E-16 ) ) ;
#47 = PLANE ( 'NONE',  #187 ) ;
#48 = DIRECTION ( 'NONE',  ( 3.491481338843133355E-15, -1.227517819005651059E-16, 1.000000000000000000 ) ) ;
#49 = CALENDAR_DATE ( 2021, 1, 11 ) ;
#50 = VERTEX_POINT ( 'NONE', #196 ) ;
#51 = FACE_OUTER_BOUND ( 'NONE', #142, .T. ) ;
#52 = PRODUCT_DEFINITION ( 'UNKNOWN', '', #174, #118 ) ;
#53 = PERSON_AND_ORGANIZATION ( #37, #88 ) ;
#54 = APPLICATION_PROTOCOL_DEFINITION ( 'international standard', 'config_control_design', 1994, #24 ) ;
#55 = COORDINATED_UNIVERSAL_TIME_OFFSET ( 1, 0, .AHEAD. ) ;
#56 = PERSON_AND_ORGANIZATION ( #37, #88 ) ;
#57 = EDGE_LOOP ( 'NONE', ( #193 ) ) ;
#58 = ORIENTED_EDGE ( 'NONE', *, *, #128, .F. ) ;
#59 = ORIENTED_EDGE ( 'NONE', *, *, #90, .F. ) ;
#60 = ORIENTED_EDGE ( 'NONE', *, *, #71, .F. ) ;
#61 = DIRECTION ( 'NONE',  ( 4.275831445896958607E-31, 1.000000000000000000, 1.224646799147353207E-16 ) ) ;
#62 = DIRECTION ( 'NONE',  ( -4.275831445896958607E-31, -1.000000000000000000, -1.224646799147353207E-16 ) ) ;
#63 = AXIS2_PLACEMENT_3D ( 'NONE', #80, #101, #184 ) ;
#64 = DIRECTION ( 'NONE',  ( 3.491481338843133355E-15, -1.227517819005651059E-16, 1.000000000000000000 ) ) ;
#65 = DIRECTION ( 'NONE',  ( -4.348522919579275296E-31, -1.000000000000000000, -1.227517819005651059E-16 ) ) ;
#66 = DIRECTION ( 'NONE',  ( 3.491481338843133355E-15, -1.224646799147353207E-16, 1.000000000000000000 ) ) ;
#67 = AXIS2_PLACEMENT_3D ( 'NONE', #222, #83, #28 ) ;
#68 = VERTEX_POINT ( 'NONE', #104 ) ;
#69 = APPROVAL ( #75, 'UNSPECIFIED' ) ;
#70 = COORDINATED_UNIVERSAL_TIME_OFFSET ( 1, 0, .AHEAD. ) ;
#71 = EDGE_CURVE ( 'NONE', #131, #131, #39, .T. ) ;
#72 = DATE_AND_TIME ( #141, #73 ) ;
#73 = LOCAL_TIME ( 11, 35, 30.00000000000000000, #139 ) ;
#74 = PERSON_AND_ORGANIZATION ( #37, #88 ) ;
#75 = APPROVAL_STATUS ( 'not_yet_approved' ) ;
#76 = EDGE_LOOP ( 'NONE', ( #216 ) ) ;
#77 = ORIENTED_EDGE ( 'NONE', *, *, #45, .F. ) ;
#78 = DIRECTION ( 'NONE',  ( -4.285855558155652404E-31, -1.000000000000000000, -1.227517819005651305E-16 ) ) ;
#79 = CARTESIAN_POINT ( 'NONE',  ( 1.316288464743861212E-13, 1.499999999999992228, 37.69999999999999574 ) ) ;
#80 = CARTESIAN_POINT ( 'NONE',  ( 3.007927642531703984E-14, -3.578272343716901798E-16, 8.615047169429667306 ) ) ;
#81 = CLOSED_SHELL ( 'NONE', ( #218, #32, #93 ) ) ;
#82 = APPROVAL_PERSON_ORGANIZATION ( #138, #7, #86 ) ;
#83 = DIRECTION ( 'NONE',  ( 3.491481338843133355E-15, -1.227517819005651059E-16, 1.000000000000000000 ) ) ;
#84 = APPROVAL ( #3, 'UNSPECIFIED' ) ;
#85 = DIRECTION ( 'NONE',  ( -3.491481338843133355E-15, 1.224646799147353207E-16, -1.000000000000000000 ) ) ;
#86 = APPROVAL_ROLE ( '' ) ;
#87 = CC_DESIGN_PERSON_AND_ORGANIZATION_ASSIGNMENT ( #89, #5, ( #174 ) ) ;
#88 = ORGANIZATION ( 'UNSPECIFIED', 'UNSPECIFIED', '' ) ;
#89 = PERSON_AND_ORGANIZATION ( #37, #88 ) ;
#90 = EDGE_CURVE ( 'NONE', #50, #50, #155, .T. ) ;
#91 = SHAPE_DEFINITION_REPRESENTATION ( #23, #123 ) ;
#92 = PERSON_AND_ORGANIZATION_ROLE ( 'design_owner' ) ;
#93 = ADVANCED_FACE ( 'NONE', ( #177 ), #47, .F. ) ;
#94 = ORIENTED_EDGE ( 'NONE', *, *, #90, .T. ) ;
#95 = TOROIDAL_SURFACE ( 'NONE', #160, 8.949999999999999289, 8.000000000000000000 ) ;
#96 = FACE_OUTER_BOUND ( 'NONE', #191, .T. ) ;
#97 = ORIENTED_EDGE ( 'NONE', *, *, #188, .T. ) ;
#98 = AXIS2_PLACEMENT_3D ( 'NONE', #34, #147, #149 ) ;
#99 = PLANE ( 'NONE',  #126 ) ;
#100 = COORDINATED_UNIVERSAL_TIME_OFFSET ( 1, 0, .AHEAD. ) ;
#101 = DIRECTION ( 'NONE',  ( -3.491481338843133355E-15, 1.227517819005651059E-16, -1.000000000000000000 ) ) ;
#102 = DIRECTION ( 'NONE',  ( -3.491481338843133355E-15, 1.224646799147353207E-16, -1.000000000000000000 ) ) ;
#103 = COORDINATED_UNIVERSAL_TIME_OFFSET ( 1, 0, .AHEAD. ) ;
#104 = CARTESIAN_POINT ( 'NONE',  ( -8.143125560495733874E-31, -0.9499999999999990674, -2.332283856110735384E-16 ) ) ;
#105 = PERSON_AND_ORGANIZATION ( #37, #88 ) ;
#106 = AXIS2_PLACEMENT_3D ( 'NONE', #152, #189, #170 ) ;
#107 = APPROVAL_PERSON_ORGANIZATION ( #74, #84, #119 ) ;
#108 = CC_DESIGN_PERSON_AND_ORGANIZATION_ASSIGNMENT ( #169, #211, ( #174 ) ) ;
#109 = CIRCLE ( 'NONE', #6, 0.9499999999999990674 ) ;
#110 = SECURITY_CLASSIFICATION ( '', '', #140 ) ;
#111 = DIRECTION ( 'NONE',  ( -3.491481338843133355E-15, 1.224646799147353207E-16, -1.000000000000000000 ) ) ;
#112 = FACE_OUTER_BOUND ( 'NONE', #157, .T. ) ;
#113 = LOCAL_TIME ( 11, 35, 30.00000000000000000, #55 ) ;
#114 = CARTESIAN_POINT ( 'NONE',  ( 1.990144363140586328E-14, 1.124819836996386911E-32, 5.700000000000000178 ) ) ;
#115 = CYLINDRICAL_SURFACE ( 'NONE', #127, 1.499999999999994893 ) ;
#116 = VERTEX_POINT ( 'NONE', #19 ) ;
#117 = ADVANCED_FACE ( 'NONE', ( #164, #112 ), #95, .F. ) ;
#118 = DESIGN_CONTEXT ( 'detailed design', #202, 'design' ) ;
#119 = APPROVAL_ROLE ( '' ) ;
#120 = CARTESIAN_POINT ( 'NONE',  ( 1.326762908760390423E-13, 1.199999999999991518, 38.00000000000000000 ) ) ;
#121 =( LENGTH_UNIT ( ) NAMED_UNIT ( * ) SI_UNIT ( .MILLI., .METRE. ) );
#122 = APPROVAL_DATE_TIME ( #16, #69 ) ;
#123 = ADVANCED_BREP_SHAPE_REPRESENTATION ( '66798', ( #200, #125, #106 ), #143 ) ;
#124 = CC_DESIGN_DATE_AND_TIME_ASSIGNMENT ( #72, #4, ( #52 ) ) ;
#125 = MANIFOLD_SOLID_BREP ( 'Corps-Déplacer/Copier1[2]', #81 ) ;
#126 = AXIS2_PLACEMENT_3D ( 'NONE', #144, #159, #61 ) ;
#127 = AXIS2_PLACEMENT_3D ( 'NONE', #163, #102, #130 ) ;
#128 = EDGE_CURVE ( 'NONE', #116, #116, #18, .T. ) ;
#129 = CARTESIAN_POINT ( 'NONE',  ( 1.326762908760390423E-13, -4.653657836759941941E-15, 38.00000000000000000 ) ) ;
#130 = DIRECTION ( 'NONE',  ( 4.275831445896958607E-31, 1.000000000000000000, 1.224646799147353207E-16 ) ) ;
#131 = VERTEX_POINT ( 'NONE', #1 ) ;
#132 = CIRCLE ( 'NONE', #8, 1.499999999999996669 ) ;
#133 = CC_DESIGN_APPROVAL ( #69, ( #110 ) ) ;
#134 = CARTESIAN_POINT ( 'NONE',  ( 1.990144363140585697E-14, -6.996851568332208618E-16, 5.699999999999998401 ) ) ;
#135 = DIRECTION ( 'NONE',  ( -4.275831445896958607E-31, -1.000000000000000000, -1.224646799147353207E-16 ) ) ;
#136 = CC_DESIGN_PERSON_AND_ORGANIZATION_ASSIGNMENT ( #105, #92, ( #31 ) ) ;
#137 = DIRECTION ( 'NONE',  ( 3.491481338843133355E-15, -1.227517819005651059E-16, 1.000000000000000000 ) ) ;
#138 = PERSON_AND_ORGANIZATION ( #37, #88 ) ;
#139 = COORDINATED_UNIVERSAL_TIME_OFFSET ( 1, 0, .AHEAD. ) ;
#140 = SECURITY_CLASSIFICATION_LEVEL ( 'unclassified' ) ;
#141 = CALENDAR_DATE ( 2021, 1, 11 ) ;
#142 = EDGE_LOOP ( 'NONE', ( #11 ) ) ;
#143 =( GEOMETRIC_REPRESENTATION_CONTEXT ( 3 ) GLOBAL_UNCERTAINTY_ASSIGNED_CONTEXT ( ( #204 ) ) GLOBAL_UNIT_ASSIGNED_CONTEXT ( ( #121, #185, #190 ) ) REPRESENTATION_CONTEXT ( 'NONE', 'WORKASPACE' ) );
#144 = CARTESIAN_POINT ( 'NONE',  ( 1.326762908760390423E-13, 8.998558695971047118E-33, 38.00000000000000000 ) ) ;
#145 = DIRECTION ( 'NONE',  ( -4.275831445896958607E-31, -1.000000000000000000, -1.224646799147353207E-16 ) ) ;
#146 = CC_DESIGN_DATE_AND_TIME_ASSIGNMENT ( #153, #212, ( #110 ) ) ;
#147 = DIRECTION ( 'NONE',  ( -3.491481338843133355E-15, 1.224646799147353207E-16, -1.000000000000000000 ) ) ;
#148 = AXIS2_PLACEMENT_3D ( 'NONE', #134, #48, #162 ) ;
#149 = DIRECTION ( 'NONE',  ( 0.0000000000000000000, 1.000000000000000000, 0.0000000000000000000 ) ) ;
#150 = CARTESIAN_POINT ( 'NONE',  ( 1.990144363140586013E-14, 0.0000000000000000000, 5.699999999999999289 ) ) ;
#151 = CALENDAR_DATE ( 2021, 1, 11 ) ;
#152 = CARTESIAN_POINT ( 'NONE',  ( 0.0000000000000000000, 0.0000000000000000000, 0.0000000000000000000 ) ) ;
#153 = DATE_AND_TIME ( #168, #113 ) ;
#154 = CC_DESIGN_APPROVAL ( #84, ( #52 ) ) ;
#155 = CIRCLE ( 'NONE', #63, 1.499999999999994893 ) ;
#156 = ORIENTED_EDGE ( 'NONE', *, *, #71, .T. ) ;
#157 = EDGE_LOOP ( 'NONE', ( #94 ) ) ;
#158 = FACE_OUTER_BOUND ( 'NONE', #215, .T. ) ;
#159 = DIRECTION ( 'NONE',  ( -3.491481338843133355E-15, 1.224646799147353207E-16, -1.000000000000000000 ) ) ;
#160 = AXIS2_PLACEMENT_3D ( 'NONE', #150, #64, #65 ) ;
#161 = ADVANCED_FACE ( 'NONE', ( #203, #2 ), #115, .T. ) ;
#162 = DIRECTION ( 'NONE',  ( 0.0000000000000000000, -1.000000000000000000, 0.0000000000000000000 ) ) ;
#163 = CARTESIAN_POINT ( 'NONE',  ( 0.0000000000000000000, 0.0000000000000000000, 0.0000000000000000000 ) ) ;
#164 = FACE_OUTER_BOUND ( 'NONE', #44, .T. ) ;
#165 = PLANE ( 'NONE',  #26 ) ;
#166 = PERSON_AND_ORGANIZATION ( #37, #88 ) ;
#167 = APPROVAL_DATE_TIME ( #186, #7 ) ;
#168 = CALENDAR_DATE ( 2021, 1, 11 ) ;
#169 = PERSON_AND_ORGANIZATION ( #37, #88 ) ;
#170 = DIRECTION ( 'NONE',  ( 1.000000000000000000, 0.0000000000000000000, 0.0000000000000000000 ) ) ;
#171 = APPROVAL_PERSON_ORGANIZATION ( #56, #69, #217 ) ;
#172 = ADVANCED_FACE ( 'NONE', ( #221 ), #165, .F. ) ;
#173 = ORIENTED_EDGE ( 'NONE', *, *, #199, .T. ) ;
#174 = PRODUCT_DEFINITION_FORMATION_WITH_SPECIFIED_SOURCE ( 'ANY', '', #31, .NOT_KNOWN. ) ;
#175 = DIRECTION ( 'NONE',  ( 0.0000000000000000000, 1.000000000000000000, 0.0000000000000000000 ) ) ;
#176 = ORIENTED_EDGE ( 'NONE', *, *, #199, .F. ) ;
#177 = FACE_OUTER_BOUND ( 'NONE', #192, .T. ) ;
#178 = CONICAL_SURFACE ( 'NONE', #197, 1.199999999999995959, 0.7853981633974468357 ) ;
#179 = DIRECTION ( 'NONE',  ( 3.491481338843133355E-15, -1.224646799147353207E-16, 1.000000000000000000 ) ) ;
#180 = PLANE ( 'NONE',  #219 ) ;
#181 = DIRECTION ( 'NONE',  ( -4.285855558155653280E-31, -1.000000000000000000, -1.227517819005651059E-16 ) ) ;
#182 = CC_DESIGN_PERSON_AND_ORGANIZATION_ASSIGNMENT ( #53, #21, ( #110 ) ) ;
#183 = LOCAL_TIME ( 11, 35, 30.00000000000000000, #100 ) ;
#184 = DIRECTION ( 'NONE',  ( 0.0000000000000000000, 1.000000000000000000, 0.0000000000000000000 ) ) ;
#185 =( NAMED_UNIT ( * ) PLANE_ANGLE_UNIT ( ) SI_UNIT ( $, .RADIAN. ) );
#186 = DATE_AND_TIME ( #208, #210 ) ;
#187 = AXIS2_PLACEMENT_3D ( 'NONE', #223, #179, #145 ) ;
#188 = EDGE_CURVE ( 'NONE', #36, #36, #209, .T. ) ;
#189 = DIRECTION ( 'NONE',  ( 0.0000000000000000000, 0.0000000000000000000, 1.000000000000000000 ) ) ;
#190 =( NAMED_UNIT ( * ) SI_UNIT ( $, .STERADIAN. ) SOLID_ANGLE_UNIT ( ) );
#191 = EDGE_LOOP ( 'NONE', ( #173 ) ) ;
#192 = EDGE_LOOP ( 'NONE', ( #176 ) ) ;
#193 = ORIENTED_EDGE ( 'NONE', *, *, #45, .T. ) ;
#194 = CYLINDRICAL_SURFACE ( 'NONE', #213, 0.9499999999999995115 ) ;
#195 = CARTESIAN_POINT ( 'NONE',  ( 1.316288464743861212E-13, -4.616918432785521081E-15, 37.69999999999999574 ) ) ;
#196 = CARTESIAN_POINT ( 'NONE',  ( 3.007927642531703984E-14, 1.499999999999994449, 8.615047169429667306 ) ) ;
#197 = AXIS2_PLACEMENT_3D ( 'NONE', #129, #111, #175 ) ;
#198 = DIRECTION ( 'NONE',  ( 3.491481338843133355E-15, -1.227517819005651059E-16, 1.000000000000000000 ) ) ;
#199 = EDGE_CURVE ( 'NONE', #68, #68, #109, .T. ) ;
#200 = MANIFOLD_SOLID_BREP ( 'Corps-Déplacer/Copier1[1]', #41 ) ;
#201 = CARTESIAN_POINT ( 'NONE',  ( 1.990144363140586328E-14, 1.124819836996386911E-32, 5.700000000000000178 ) ) ;
#202 = APPLICATION_CONTEXT ( 'configuration controlled 3d designs of mechanical parts and assemblies' ) ;
#203 = FACE_OUTER_BOUND ( 'NONE', #57, .T. ) ;
#204 = UNCERTAINTY_MEASURE_WITH_UNIT (LENGTH_MEASURE( 1.000000000000000082E-05 ), #121, 'distance_accuracy_value', 'NONE');
#205 = DATE_AND_TIME ( #151, #35 ) ;
#206 = ADVANCED_FACE ( 'NONE', ( #51 ), #99, .F. ) ;
#207 = APPLICATION_PROTOCOL_DEFINITION ( 'international standard', 'config_control_design', 1994, #202 ) ;
#208 = CALENDAR_DATE ( 2021, 1, 11 ) ;
#209 = CIRCLE ( 'NONE', #98, 1.199999999999995959 ) ;
#210 = LOCAL_TIME ( 11, 35, 30.00000000000000000, #70 ) ;
#211 = PERSON_AND_ORGANIZATION_ROLE ( 'design_supplier' ) ;
#212 = DATE_TIME_ROLE ( 'classification_date' ) ;
#213 = AXIS2_PLACEMENT_3D ( 'NONE', #17, #198, #181 ) ;
#214 = CC_DESIGN_APPROVAL ( #7, ( #174 ) ) ;
#215 = EDGE_LOOP ( 'NONE', ( #58 ) ) ;
#216 = ORIENTED_EDGE ( 'NONE', *, *, #128, .T. ) ;
#217 = APPROVAL_ROLE ( '' ) ;
#218 = ADVANCED_FACE ( 'NONE', ( #30 ), #180, .T. ) ;
#219 = AXIS2_PLACEMENT_3D ( 'NONE', #201, #15, #62 ) ;
#220 = FACE_OUTER_BOUND ( 'NONE', #27, .T. ) ;
#221 = FACE_OUTER_BOUND ( 'NONE', #13, .T. ) ;
#222 = CARTESIAN_POINT ( 'NONE',  ( 1.990144363140585697E-14, -6.996851568332208618E-16, 5.699999999999998401 ) ) ;
#223 = CARTESIAN_POINT ( 'NONE',  ( -8.551680453529350800E-31, 2.999525725151307090E-32, -2.449298628175645296E-16 ) ) ;
ENDSEC;
END-ISO-10303-21;
