ISO-10303-21;
HEADER;
FILE_DESCRIPTION (( 'STEP AP203' ),
    '1' );
FILE_NAME ('66791.step',
    '2021-11-29T14:58:41',
    ( '' ),
    ( '' ),
    'SwSTEP 2.0',
    'SolidWorks 2019',
    '' );
FILE_SCHEMA (( 'CONFIG_CONTROL_DESIGN' ));
ENDSEC;

DATA;
#1 = FACE_BOUND ( 'NONE', #22, .T. ) ;
#2 = VERTEX_POINT ( 'NONE', #98 ) ;
#3 = EDGE_CURVE ( 'NONE', #55, #55, #225, .T. ) ;
#4 = DIRECTION ( 'NONE',  ( 0.0000000000000000000, 1.000000000000000000, 0.0000000000000000000 ) ) ;
#5 = DIRECTION ( 'NONE',  ( 0.0000000000000000000, 1.000000000000000000, 0.0000000000000000000 ) ) ;
#6 = DIRECTION ( 'NONE',  ( 4.275831445896957731E-31, 1.000000000000000000, 1.224646799147352961E-16 ) ) ;
#7 = CARTESIAN_POINT ( 'NONE',  ( 8.728703347107835360E-16, 0.7334999999999992637, 0.2500000000000000555 ) ) ;
#8 = EDGE_CURVE ( 'NONE', #236, #236, #43, .T. ) ;
#9 = DIRECTION ( 'NONE',  ( -3.491481338843133355E-15, 1.224646799147352961E-16, -1.000000000000000000 ) ) ;
#10 = PERSON_AND_ORGANIZATION ( #17, #269 ) ;
#11 = DATE_TIME_ROLE ( 'classification_date' ) ;
#12 = DIRECTION ( 'NONE',  ( -3.491481338843133355E-15, 1.224646799147352961E-16, -1.000000000000000000 ) ) ;
#13 = PERSON_AND_ORGANIZATION ( #17, #269 ) ;
#14 = COORDINATED_UNIVERSAL_TIME_OFFSET ( 1, 0, .AHEAD. ) ;
#15 = APPROVAL_PERSON_ORGANIZATION ( #38, #49, #111 ) ;
#16 = PERSON_AND_ORGANIZATION_ROLE ( 'design_owner' ) ;
#17 = PERSON ( 'UNSPECIFIED', 'UNSPECIFIED', 'UNSPECIFIED', ('UNSPECIFIED'), ('UNSPECIFIED'), ('UNSPECIFIED') ) ;
#18 = PRODUCT_DEFINITION_SHAPE ( 'NONE', 'NONE',  #19 ) ;
#19 = PRODUCT_DEFINITION ( 'UNKNOWN', '', #301, #243 ) ;
#20 = LOCAL_TIME ( 15, 58, 41.00000000000000000, #14 ) ;
#21 = EDGE_LOOP ( 'NONE', ( #172 ) ) ;
#22 = EDGE_LOOP ( 'NONE', ( #253 ) ) ;
#23 = DIRECTION ( 'NONE',  ( 0.0000000000000000000, 1.000000000000000000, 0.0000000000000000000 ) ) ;
#24 = DIRECTION ( 'NONE',  ( -5.251342724982243457E-31, -1.000000000000000000, -1.478121571214049793E-16 ) ) ;
#25 = CARTESIAN_POINT ( 'NONE',  ( 2.497556631382305617E-14, -8.760249411285782155E-16, 7.153286496469848821 ) ) ;
#26 = FACE_OUTER_BOUND ( 'NONE', #299, .T. ) ;
#27 = DIRECTION ( 'NONE',  ( 4.275831445896957731E-31, 1.000000000000000000, 1.224646799147352961E-16 ) ) ;
#28 = VERTEX_POINT ( 'NONE', #7 ) ;
#29 = AXIS2_PLACEMENT_3D ( 'NONE', #25, #72, #264 ) ;
#30 = LOCAL_TIME ( 15, 58, 41.00000000000000000, #294 ) ;
#31 = ADVANCED_FACE ( 'NONE', ( #213, #144 ), #293, .T. ) ;
#32 = DIRECTION ( 'NONE',  ( -3.491481338843133355E-15, 1.224646799147352961E-16, -1.000000000000000000 ) ) ;
#33 = PLANE ( 'NONE',  #179 ) ;
#34 = DATE_AND_TIME ( #198, #254 ) ;
#35 = CYLINDRICAL_SURFACE ( 'NONE', #164, 1.500000000000000444 ) ;
#36 = DATE_AND_TIME ( #183, #30 ) ;
#37 = ADVANCED_FACE ( 'NONE', ( #166, #234 ), #58, .T. ) ;
#38 = PERSON_AND_ORGANIZATION ( #17, #269 ) ;
#39 = AXIS2_PLACEMENT_3D ( 'NONE', #300, #184, #4 ) ;
#40 = AXIS2_PLACEMENT_3D ( 'NONE', #76, #32, #171 ) ;
#41 = ADVANCED_FACE ( 'NONE', ( #101 ), #206, .T. ) ;
#42 = ORIENTED_EDGE ( 'NONE', *, *, #8, .F. ) ;
#43 = CIRCLE ( 'NONE', #39, 0.6450000000000002398 ) ;
#44 = EDGE_LOOP ( 'NONE', ( #132 ) ) ;
#45 = ADVANCED_FACE ( 'NONE', ( #257, #26 ), #35, .T. ) ;
#46 = ORIENTED_EDGE ( 'NONE', *, *, #94, .T. ) ;
#47 = EDGE_LOOP ( 'NONE', ( #255 ) ) ;
#48 = DIRECTION ( 'NONE',  ( -3.491481338843133355E-15, 1.224646799147352961E-16, -1.000000000000000000 ) ) ;
#49 = APPROVAL ( #109, 'UNSPECIFIED' ) ;
#50 = DIRECTION ( 'NONE',  ( -4.275831445896957731E-31, -1.000000000000000000, -1.224646799147352961E-16 ) ) ;
#51 = LOCAL_TIME ( 15, 58, 41.00000000000000000, #81 ) ;
#52 = ORIENTED_EDGE ( 'NONE', *, *, #247, .F. ) ;
#53 = VERTEX_POINT ( 'NONE', #267 ) ;
#54 = ORIENTED_EDGE ( 'NONE', *, *, #282, .F. ) ;
#55 = VERTEX_POINT ( 'NONE', #149 ) ;
#56 = AXIS2_PLACEMENT_3D ( 'NONE', #127, #207, #5 ) ;
#57 = DIRECTION ( 'NONE',  ( 4.275831445896957731E-31, 1.000000000000000000, 1.224646799147352714E-16 ) ) ;
#58 = CYLINDRICAL_SURFACE ( 'NONE', #115, 0.7334999999999997078 ) ;
#59 = UNCERTAINTY_MEASURE_WITH_UNIT (LENGTH_MEASURE( 1.000000000000000082E-05 ), #147, 'distance_accuracy_value', 'NONE');
#60 = ADVANCED_FACE ( 'NONE', ( #302, #73 ), #156, .F. ) ;
#61 =( NAMED_UNIT ( * ) SI_UNIT ( $, .STERADIAN. ) SOLID_ANGLE_UNIT ( ) );
#62 = APPROVAL_DATE_TIME ( #34, #63 ) ;
#63 = APPROVAL ( #107, 'UNSPECIFIED' ) ;
#64 = PRODUCT ( '66791', '66791', '', ( #159 ) ) ;
#65 = AXIS2_PLACEMENT_3D ( 'NONE', #122, #9, #169 ) ;
#66 = EDGE_LOOP ( 'NONE', ( #138 ) ) ;
#67 = EDGE_CURVE ( 'NONE', #53, #53, #88, .T. ) ;
#68 = AXIS2_PLACEMENT_3D ( 'NONE', #99, #92, #24 ) ;
#69 = EDGE_LOOP ( 'NONE', ( #117 ) ) ;
#70 = ORIENTED_EDGE ( 'NONE', *, *, #226, .T. ) ;
#71 = FACE_OUTER_BOUND ( 'NONE', #136, .T. ) ;
#72 = DIRECTION ( 'NONE',  ( -3.491481338843133355E-15, 1.224646799147352961E-16, -1.000000000000000000 ) ) ;
#73 = FACE_OUTER_BOUND ( 'NONE', #203, .T. ) ;
#74 = PLANE ( 'NONE',  #135 ) ;
#75 = DIRECTION ( 'NONE',  ( 3.491481338843133355E-15, -1.224646799147352961E-16, 1.000000000000000000 ) ) ;
#76 = CARTESIAN_POINT ( 'NONE',  ( 1.316288464743861212E-13, -4.616918432785520292E-15, 37.69999999999999574 ) ) ;
#77 = EDGE_LOOP ( 'NONE', ( #52 ) ) ;
#78 = CARTESIAN_POINT ( 'NONE',  ( 5.237222008264700033E-14, 0.6449999999999984635, 15.00000000000000000 ) ) ;
#79 = AXIS2_PLACEMENT_3D ( 'NONE', #210, #229, #23 ) ;
#80 = DIRECTION ( 'NONE',  ( 0.0000000000000000000, 1.000000000000000000, 0.0000000000000000000 ) ) ;
#81 = COORDINATED_UNIVERSAL_TIME_OFFSET ( 1, 0, .AHEAD. ) ;
#82 = ADVANCED_FACE ( 'NONE', ( #71 ), #189, .F. ) ;
#83 = PERSON_AND_ORGANIZATION_ROLE ( 'creator' ) ;
#84 = DIRECTION ( 'NONE',  ( -3.491481338843133355E-15, 1.224646799147352961E-16, -1.000000000000000000 ) ) ;
#85 = APPROVAL_DATE_TIME ( #241, #152 ) ;
#86 = APPROVAL_PERSON_ORGANIZATION ( #13, #63, #291 ) ;
#87 = COORDINATED_UNIVERSAL_TIME_OFFSET ( 1, 0, .AHEAD. ) ;
#88 = CIRCLE ( 'NONE', #79, 1.200000000000003286 ) ;
#89 = EDGE_LOOP ( 'NONE', ( #42 ) ) ;
#90 = EDGE_LOOP ( 'NONE', ( #54 ) ) ;
#91 = AXIS2_PLACEMENT_3D ( 'NONE', #153, #233, #186 ) ;
#92 = DIRECTION ( 'NONE',  ( 3.491481338843133355E-15, -1.224646799147352961E-16, 1.000000000000000000 ) ) ;
#93 = CC_DESIGN_APPROVAL ( #49, ( #274 ) ) ;
#94 = EDGE_CURVE ( 'NONE', #145, #145, #260, .T. ) ;
#95 = DIRECTION ( 'NONE',  ( -4.275831445896957731E-31, -1.000000000000000000, -1.224646799147352961E-16 ) ) ;
#96 = DIRECTION ( 'NONE',  ( -3.491481338843133355E-15, 1.224646799147352961E-16, -1.000000000000000000 ) ) ;
#97 = FACE_OUTER_BOUND ( 'NONE', #263, .T. ) ;
#98 = CARTESIAN_POINT ( 'NONE',  ( 1.316288464743861212E-13, 1.499999999999998668, 37.69999999999999574 ) ) ;
#99 = CARTESIAN_POINT ( 'NONE',  ( 8.728703347107831416E-16, -3.061616997868381785E-17, 0.2499999999999999445 ) ) ;
#100 = CARTESIAN_POINT ( 'NONE',  ( 2.444036937190193349E-14, 0.7334999999999992637, 7.000000000000000000 ) ) ;
#101 = FACE_OUTER_BOUND ( 'NONE', #120, .T. ) ;
#102 = ADVANCED_FACE ( 'NONE', ( #1, #97 ), #296, .T. ) ;
#103 = FACE_BOUND ( 'NONE', #278, .T. ) ;
#104 = CARTESIAN_POINT ( 'NONE',  ( 2.444036937190193349E-14, 0.7334999999999992637, 7.000000000000000000 ) ) ;
#105 = APPLICATION_CONTEXT ( 'configuration controlled 3d designs of mechanical parts and assemblies' ) ;
#106 = CIRCLE ( 'NONE', #231, 0.7335000000000001519 ) ;
#107 = APPROVAL_STATUS ( 'not_yet_approved' ) ;
#108 = CC_DESIGN_DATE_AND_TIME_ASSIGNMENT ( #246, #11, ( #274 ) ) ;
#109 = APPROVAL_STATUS ( 'not_yet_approved' ) ;
#110 = DIRECTION ( 'NONE',  ( 5.251342724982243457E-31, 1.000000000000000000, 1.478121571214049793E-16 ) ) ;
#111 = APPROVAL_ROLE ( '' ) ;
#112 = AXIS2_PLACEMENT_3D ( 'NONE', #197, #84, #110 ) ;
#113 = CIRCLE ( 'NONE', #194, 0.5891624327025948293 ) ;
#114 = PERSON_AND_ORGANIZATION_ROLE ( 'creator' ) ;
#115 = AXIS2_PLACEMENT_3D ( 'NONE', #242, #275, #6 ) ;
#116 = CC_DESIGN_APPROVAL ( #152, ( #301 ) ) ;
#117 = ORIENTED_EDGE ( 'NONE', *, *, #137, .T. ) ;
#118 = CC_DESIGN_PERSON_AND_ORGANIZATION_ASSIGNMENT ( #220, #16, ( #64 ) ) ;
#119 = AXIS2_PLACEMENT_3D ( 'NONE', #215, #239, #57 ) ;
#120 = EDGE_LOOP ( 'NONE', ( #251 ) ) ;
#121 = DIRECTION ( 'NONE',  ( 4.275831445896957731E-31, 1.000000000000000000, 1.224646799147353207E-16 ) ) ;
#122 = CARTESIAN_POINT ( 'NONE',  ( 6.991315447241059216E-14, -2.452223355468398809E-15, 20.02392328282516232 ) ) ;
#123 = CARTESIAN_POINT ( 'NONE',  ( 0.0000000000000000000, 0.0000000000000000000, 0.0000000000000000000 ) ) ;
#124 = EDGE_LOOP ( 'NONE', ( #224 ) ) ;
#125 = CC_DESIGN_APPROVAL ( #63, ( #19 ) ) ;
#126 = CARTESIAN_POINT ( 'NONE',  ( 6.991315447241059216E-14, 1.499999999999995559, 20.02392328282516232 ) ) ;
#127 = CARTESIAN_POINT ( 'NONE',  ( 2.497556631382305617E-14, -8.760249411285782155E-16, 7.153286496469848821 ) ) ;
#128 = EDGE_CURVE ( 'NONE', #28, #28, #212, .T. ) ;
#129 = APPLICATION_PROTOCOL_DEFINITION ( 'international standard', 'config_control_design', 1994, #130 ) ;
#130 = APPLICATION_CONTEXT ( 'configuration controlled 3d designs of mechanical parts and assemblies' ) ;
#131 = CALENDAR_DATE ( 2021, 29, 11 ) ;
#132 = ORIENTED_EDGE ( 'NONE', *, *, #128, .F. ) ;
#133 = PERSON_AND_ORGANIZATION_ROLE ( 'design_supplier' ) ;
#134 = PERSON_AND_ORGANIZATION ( #17, #269 ) ;
#135 = AXIS2_PLACEMENT_3D ( 'NONE', #266, #96, #285 ) ;
#136 = EDGE_LOOP ( 'NONE', ( #265 ) ) ;
#137 = EDGE_CURVE ( 'NONE', #209, #209, #106, .T. ) ;
#138 = ORIENTED_EDGE ( 'NONE', *, *, #252, .F. ) ;
#139 = MANIFOLD_SOLID_BREP ( 'Corps-Déplacer/Copier1[1]', #292 ) ;
#140 = AXIS2_PLACEMENT_3D ( 'NONE', #268, #217, #160 ) ;
#141 = ORIENTED_EDGE ( 'NONE', *, *, #3, .T. ) ;
#142 = DIRECTION ( 'NONE',  ( -3.491481338843133355E-15, 1.224646799147352961E-16, -1.000000000000000000 ) ) ;
#143 = CONICAL_SURFACE ( 'NONE', #56, 0.6449999999999993516, 0.5235987755982943748 ) ;
#144 = FACE_OUTER_BOUND ( 'NONE', #21, .T. ) ;
#145 = VERTEX_POINT ( 'NONE', #100 ) ;
#146 = ORIENTED_EDGE ( 'NONE', *, *, #226, .F. ) ;
#147 =( LENGTH_UNIT ( ) NAMED_UNIT ( * ) SI_UNIT ( .MILLI., .METRE. ) );
#148 = DIRECTION ( 'NONE',  ( -4.275831445896957731E-31, -1.000000000000000000, -1.224646799147352961E-16 ) ) ;
#149 = CARTESIAN_POINT ( 'NONE',  ( 5.358479882634335789E-14, 0.6753844939755807575, 15.34729635533384595 ) ) ;
#150 = AXIS2_PLACEMENT_3D ( 'NONE', #185, #48, #208 ) ;
#151 = FACE_OUTER_BOUND ( 'NONE', #66, .T. ) ;
#152 = APPROVAL ( #154, 'UNSPECIFIED' ) ;
#153 = CARTESIAN_POINT ( 'NONE',  ( 1.326762908760390423E-13, -4.653657836759941152E-15, 38.00000000000000000 ) ) ;
#154 = APPROVAL_STATUS ( 'not_yet_approved' ) ;
#155 = DIRECTION ( 'NONE',  ( 0.0000000000000000000, 1.000000000000000000, 0.0000000000000000000 ) ) ;
#156 = TOROIDAL_SURFACE ( 'NONE', #250, 2.645000000000000018, 2.000000000000000000 ) ;
#157 = CIRCLE ( 'NONE', #29, 0.6449999999999993516 ) ;
#158 = APPROVAL_PERSON_ORGANIZATION ( #10, #152, #248 ) ;
#159 = MECHANICAL_CONTEXT ( 'NONE', #105, 'mechanical' ) ;
#160 = DIRECTION ( 'NONE',  ( 1.000000000000000000, 0.0000000000000000000, 0.0000000000000000000 ) ) ;
#161 = AXIS2_PLACEMENT_3D ( 'NONE', #281, #75, #95 ) ;
#162 = ORIENTED_EDGE ( 'NONE', *, *, #67, .T. ) ;
#163 = CC_DESIGN_PERSON_AND_ORGANIZATION_ASSIGNMENT ( #201, #270, ( #274 ) ) ;
#164 = AXIS2_PLACEMENT_3D ( 'NONE', #123, #142, #121 ) ;
#165 = EDGE_LOOP ( 'NONE', ( #228 ) ) ;
#166 = FACE_OUTER_BOUND ( 'NONE', #44, .T. ) ;
#167 = CARTESIAN_POINT ( 'NONE',  ( -2.519159256490905491E-31, 8.836021220225747029E-33, -7.215158873871005333E-17 ) ) ;
#168 = CARTESIAN_POINT ( 'NONE',  ( 6.991315447241059216E-14, -2.452223355468398809E-15, 20.02392328282516232 ) ) ;
#169 = DIRECTION ( 'NONE',  ( 0.0000000000000000000, 1.000000000000000000, 0.0000000000000000000 ) ) ;
#170 = DIRECTION ( 'NONE',  ( 3.491481338843133355E-15, -1.224646799147352961E-16, 1.000000000000000000 ) ) ;
#171 = DIRECTION ( 'NONE',  ( 0.0000000000000000000, 1.000000000000000000, 0.0000000000000000000 ) ) ;
#172 = ORIENTED_EDGE ( 'NONE', *, *, #128, .T. ) ;
#173 = VERTEX_POINT ( 'NONE', #126 ) ;
#174 = ADVANCED_FACE ( 'NONE', ( #259, #190 ), #143, .T. ) ;
#175 =( GEOMETRIC_REPRESENTATION_CONTEXT ( 3 ) GLOBAL_UNCERTAINTY_ASSIGNED_CONTEXT ( ( #59 ) ) GLOBAL_UNIT_ASSIGNED_CONTEXT ( ( #147, #295, #61 ) ) REPRESENTATION_CONTEXT ( 'NONE', 'WORKASPACE' ) );
#176 = DIRECTION ( 'NONE',  ( -3.491481338843133355E-15, 1.224646799147352961E-16, -1.000000000000000000 ) ) ;
#177 = ADVANCED_BREP_SHAPE_REPRESENTATION ( '66791', ( #139, #249, #140 ), #175 ) ;
#178 = SHAPE_DEFINITION_REPRESENTATION ( #18, #177 ) ;
#179 = AXIS2_PLACEMENT_3D ( 'NONE', #283, #277, #50 ) ;
#180 = SECURITY_CLASSIFICATION_LEVEL ( 'unclassified' ) ;
#181 = PRODUCT_RELATED_PRODUCT_CATEGORY ( 'detail', '', ( #64 ) ) ;
#182 = DATE_TIME_ROLE ( 'creation_date' ) ;
#183 = CALENDAR_DATE ( 2021, 29, 11 ) ;
#184 = DIRECTION ( 'NONE',  ( -3.491481338843133355E-15, 1.224646799147352961E-16, -1.000000000000000000 ) ) ;
#185 = CARTESIAN_POINT ( 'NONE',  ( 2.444036937190193349E-14, -8.572527594031471218E-16, 7.000000000000000000 ) ) ;
#186 = DIRECTION ( 'NONE',  ( 0.0000000000000000000, 1.000000000000000000, 0.0000000000000000000 ) ) ;
#187 = DIRECTION ( 'NONE',  ( -3.491481338843133355E-15, 1.224646799147352961E-16, -1.000000000000000000 ) ) ;
#188 = CARTESIAN_POINT ( 'NONE',  ( 2.497556631382305617E-14, 0.6449999999999984635, 7.153286496469848821 ) ) ;
#189 = PLANE ( 'NONE',  #161 ) ;
#190 = FACE_BOUND ( 'NONE', #47, .T. ) ;
#191 = CARTESIAN_POINT ( 'NONE',  ( 5.358479882634335789E-14, -1.879501735712542907E-15, 15.34729635533384595 ) ) ;
#192 = FACE_OUTER_BOUND ( 'NONE', #124, .T. ) ;
#193 = VERTEX_POINT ( 'NONE', #188 ) ;
#194 = AXIS2_PLACEMENT_3D ( 'NONE', #167, #176, #262 ) ;
#195 = CALENDAR_DATE ( 2021, 29, 11 ) ;
#196 = CALENDAR_DATE ( 2021, 29, 11 ) ;
#197 = CARTESIAN_POINT ( 'NONE',  ( 8.728703347107831416E-16, -3.061616997868381785E-17, 0.2499999999999999445 ) ) ;
#198 = CALENDAR_DATE ( 2021, 29, 11 ) ;
#199 = AXIS2_PLACEMENT_3D ( 'NONE', #191, #276, #155 ) ;
#200 = COORDINATED_UNIVERSAL_TIME_OFFSET ( 1, 0, .AHEAD. ) ;
#201 = PERSON_AND_ORGANIZATION ( #17, #269 ) ;
#202 = CC_DESIGN_DATE_AND_TIME_ASSIGNMENT ( #36, #182, ( #19 ) ) ;
#203 = EDGE_LOOP ( 'NONE', ( #141 ) ) ;
#204 = ADVANCED_FACE ( 'NONE', ( #211, #103 ), #222, .T. ) ;
#205 = AXIS2_PLACEMENT_3D ( 'NONE', #168, #170, #290 ) ;
#206 = PLANE ( 'NONE',  #279 ) ;
#207 = DIRECTION ( 'NONE',  ( -3.491481338843133355E-15, 1.224646799147352961E-16, -1.000000000000000000 ) ) ;
#208 = DIRECTION ( 'NONE',  ( 0.0000000000000000000, 1.000000000000000000, 0.0000000000000000000 ) ) ;
#209 = VERTEX_POINT ( 'NONE', #104 ) ;
#210 = CARTESIAN_POINT ( 'NONE',  ( 1.326762908760390423E-13, -4.653657836759941152E-15, 38.00000000000000000 ) ) ;
#211 = FACE_OUTER_BOUND ( 'NONE', #77, .T. ) ;
#212 = CIRCLE ( 'NONE', #112, 0.7334999999999992637 ) ;
#213 = FACE_BOUND ( 'NONE', #90, .T. ) ;
#214 = CARTESIAN_POINT ( 'NONE',  ( 0.0000000000000000000, 0.5891624327025948293, 0.0000000000000000000 ) ) ;
#215 = CARTESIAN_POINT ( 'NONE',  ( 0.0000000000000000000, 0.0000000000000000000, 0.0000000000000000000 ) ) ;
#216 = CLOSED_SHELL ( 'NONE', ( #82, #31, #37, #41 ) ) ;
#217 = DIRECTION ( 'NONE',  ( 0.0000000000000000000, 0.0000000000000000000, 1.000000000000000000 ) ) ;
#218 = CARTESIAN_POINT ( 'NONE',  ( 2.444036937190193349E-14, -8.572527594031471218E-16, 7.000000000000000000 ) ) ;
#219 = ADVANCED_FACE ( 'NONE', ( #151, #192 ), #303, .T. ) ;
#220 = PERSON_AND_ORGANIZATION ( #17, #269 ) ;
#221 = ADVANCED_FACE ( 'NONE', ( #238 ), #74, .F. ) ;
#222 = CONICAL_SURFACE ( 'NONE', #91, 1.200000000000003286, 0.7853981633974453924 ) ;
#223 = PERSON_AND_ORGANIZATION ( #17, #269 ) ;
#224 = ORIENTED_EDGE ( 'NONE', *, *, #8, .T. ) ;
#225 = CIRCLE ( 'NONE', #199, 0.6753844939755825338 ) ;
#226 = EDGE_CURVE ( 'NONE', #173, #173, #288, .T. ) ;
#227 = ORIENTED_EDGE ( 'NONE', *, *, #67, .F. ) ;
#228 = ORIENTED_EDGE ( 'NONE', *, *, #137, .F. ) ;
#229 = DIRECTION ( 'NONE',  ( -3.491481338843133355E-15, 1.224646799147352961E-16, -1.000000000000000000 ) ) ;
#230 = CC_DESIGN_PERSON_AND_ORGANIZATION_ASSIGNMENT ( #272, #133, ( #301 ) ) ;
#231 = AXIS2_PLACEMENT_3D ( 'NONE', #218, #12, #80 ) ;
#232 = CARTESIAN_POINT ( 'NONE',  ( 5.237222008264700033E-14, -1.734723475976807094E-15, 15.00000000000000000 ) ) ;
#233 = DIRECTION ( 'NONE',  ( -3.491481338843133355E-15, 1.224646799147352961E-16, -1.000000000000000000 ) ) ;
#234 = FACE_OUTER_BOUND ( 'NONE', #261, .T. ) ;
#235 = FACE_OUTER_BOUND ( 'NONE', #69, .T. ) ;
#236 = VERTEX_POINT ( 'NONE', #78 ) ;
#237 = CIRCLE ( 'NONE', #40, 1.500000000000003331 ) ;
#238 = FACE_OUTER_BOUND ( 'NONE', #273, .T. ) ;
#239 = DIRECTION ( 'NONE',  ( -3.491481338843133355E-15, 1.224646799147352961E-16, -1.000000000000000000 ) ) ;
#240 = ADVANCED_FACE ( 'NONE', ( #235 ), #33, .F. ) ;
#241 = DATE_AND_TIME ( #131, #20 ) ;
#242 = CARTESIAN_POINT ( 'NONE',  ( 0.0000000000000000000, 0.0000000000000000000, 0.0000000000000000000 ) ) ;
#243 = DESIGN_CONTEXT ( 'detailed design', #130, 'design' ) ;
#244 = LOCAL_TIME ( 15, 58, 41.00000000000000000, #87 ) ;
#245 = APPLICATION_PROTOCOL_DEFINITION ( 'international standard', 'config_control_design', 1994, #105 ) ;
#246 = DATE_AND_TIME ( #195, #51 ) ;
#247 = EDGE_CURVE ( 'NONE', #2, #2, #237, .T. ) ;
#248 = APPROVAL_ROLE ( '' ) ;
#249 = MANIFOLD_SOLID_BREP ( 'Corps-Déplacer/Copier1[2]', #216 ) ;
#250 = AXIS2_PLACEMENT_3D ( 'NONE', #232, #187, #27 ) ;
#251 = ORIENTED_EDGE ( 'NONE', *, *, #94, .F. ) ;
#252 = EDGE_CURVE ( 'NONE', #193, #193, #157, .T. ) ;
#253 = ORIENTED_EDGE ( 'NONE', *, *, #3, .F. ) ;
#254 = LOCAL_TIME ( 15, 58, 41.00000000000000000, #200 ) ;
#255 = ORIENTED_EDGE ( 'NONE', *, *, #252, .T. ) ;
#256 = CC_DESIGN_PERSON_AND_ORGANIZATION_ASSIGNMENT ( #134, #83, ( #19 ) ) ;
#257 = FACE_OUTER_BOUND ( 'NONE', #298, .T. ) ;
#258 = DIRECTION ( 'NONE',  ( 3.491481338843133355E-15, -1.224646799147352961E-16, 1.000000000000000000 ) ) ;
#259 = FACE_OUTER_BOUND ( 'NONE', #165, .T. ) ;
#260 = CIRCLE ( 'NONE', #150, 0.7335000000000001519 ) ;
#261 = EDGE_LOOP ( 'NONE', ( #46 ) ) ;
#262 = DIRECTION ( 'NONE',  ( 4.275831445896958607E-31, 1.000000000000000000, 1.224646799147352961E-16 ) ) ;
#263 = EDGE_LOOP ( 'NONE', ( #70 ) ) ;
#264 = DIRECTION ( 'NONE',  ( 0.0000000000000000000, 1.000000000000000000, 0.0000000000000000000 ) ) ;
#265 = ORIENTED_EDGE ( 'NONE', *, *, #282, .T. ) ;
#266 = CARTESIAN_POINT ( 'NONE',  ( 1.326762908760390423E-13, 8.998558695971099120E-33, 38.00000000000000000 ) ) ;
#267 = CARTESIAN_POINT ( 'NONE',  ( 1.326762908760390423E-13, 1.199999999999998845, 38.00000000000000000 ) ) ;
#268 = CARTESIAN_POINT ( 'NONE',  ( 0.0000000000000000000, 0.0000000000000000000, 0.0000000000000000000 ) ) ;
#269 = ORGANIZATION ( 'UNSPECIFIED', 'UNSPECIFIED', '' ) ;
#270 = PERSON_AND_ORGANIZATION_ROLE ( 'classification_officer' ) ;
#271 = APPROVAL_DATE_TIME ( #289, #49 ) ;
#272 = PERSON_AND_ORGANIZATION ( #17, #269 ) ;
#273 = EDGE_LOOP ( 'NONE', ( #227 ) ) ;
#274 = SECURITY_CLASSIFICATION ( '', '', #180 ) ;
#275 = DIRECTION ( 'NONE',  ( -3.491481338843133355E-15, 1.224646799147352961E-16, -1.000000000000000000 ) ) ;
#276 = DIRECTION ( 'NONE',  ( -3.491481338843133355E-15, 1.224646799147352961E-16, -1.000000000000000000 ) ) ;
#277 = DIRECTION ( 'NONE',  ( 3.491481338843133355E-15, -1.224646799147352961E-16, 1.000000000000000000 ) ) ;
#278 = EDGE_LOOP ( 'NONE', ( #162 ) ) ;
#279 = AXIS2_PLACEMENT_3D ( 'NONE', #284, #258, #148 ) ;
#280 = CC_DESIGN_SECURITY_CLASSIFICATION ( #274, ( #301 ) ) ;
#281 = CARTESIAN_POINT ( 'NONE',  ( -1.259579628245452745E-31, 4.418010610112873515E-33, -3.607579436935502667E-17 ) ) ;
#282 = EDGE_CURVE ( 'NONE', #286, #286, #113, .T. ) ;
#283 = CARTESIAN_POINT ( 'NONE',  ( 2.444036937190193349E-14, 5.500369002912348326E-33, 7.000000000000000000 ) ) ;
#284 = CARTESIAN_POINT ( 'NONE',  ( 2.444036937190193349E-14, 5.500369002912348326E-33, 7.000000000000000000 ) ) ;
#285 = DIRECTION ( 'NONE',  ( 4.275831445896957731E-31, 1.000000000000000000, 1.224646799147352961E-16 ) ) ;
#286 = VERTEX_POINT ( 'NONE', #214 ) ;
#287 = CC_DESIGN_PERSON_AND_ORGANIZATION_ASSIGNMENT ( #223, #114, ( #301 ) ) ;
#288 = CIRCLE ( 'NONE', #65, 1.499999999999997780 ) ;
#289 = DATE_AND_TIME ( #196, #244 ) ;
#290 = DIRECTION ( 'NONE',  ( 0.0000000000000000000, -1.000000000000000000, 0.0000000000000000000 ) ) ;
#291 = APPROVAL_ROLE ( '' ) ;
#292 = CLOSED_SHELL ( 'NONE', ( #240, #174, #219, #60, #102, #45, #204, #221 ) ) ;
#293 = CONICAL_SURFACE ( 'NONE', #68, 0.7334999999999992637, 0.5235987755982927094 ) ;
#294 = COORDINATED_UNIVERSAL_TIME_OFFSET ( 1, 0, .AHEAD. ) ;
#295 =( NAMED_UNIT ( * ) PLANE_ANGLE_UNIT ( ) SI_UNIT ( $, .RADIAN. ) );
#296 = CONICAL_SURFACE ( 'NONE', #205, 1.499999999999997780, 0.1745329251994259534 ) ;
#297 = ORIENTED_EDGE ( 'NONE', *, *, #247, .T. ) ;
#298 = EDGE_LOOP ( 'NONE', ( #146 ) ) ;
#299 = EDGE_LOOP ( 'NONE', ( #297 ) ) ;
#300 = CARTESIAN_POINT ( 'NONE',  ( 5.237222008264700033E-14, -1.836970198721029194E-15, 15.00000000000000000 ) ) ;
#301 = PRODUCT_DEFINITION_FORMATION_WITH_SPECIFIED_SOURCE ( 'ANY', '', #64, .NOT_KNOWN. ) ;
#302 = FACE_OUTER_BOUND ( 'NONE', #89, .T. ) ;
#303 = CYLINDRICAL_SURFACE ( 'NONE', #119, 0.6449999999999997957 ) ;
ENDSEC;
END-ISO-10303-21;
