ISO-10303-21;
HEADER;
FILE_DESCRIPTION (( 'STEP AP203' ),
    '1' );
FILE_NAME ('66785.step',
    '2024-07-12T09:23:03',
    ( '' ),
    ( '' ),
    'SwSTEP 2.0',
    'SolidWorks 2022',
    '' );
FILE_SCHEMA (( 'CONFIG_CONTROL_DESIGN' ));
ENDSEC;

DATA;
#1 = MANIFOLD_SOLID_BREP ( 'Corps-Déplacer/Copier1[1]', #128 ) ;
#2 = AXIS2_PLACEMENT_3D ( 'NONE', #136, #43, #67 ) ;
#3 = DIRECTION ( 'NONE',  ( 4.275831445896959482E-31, 1.000000000000000000, 1.224646799147353454E-16 ) ) ;
#4 = AXIS2_PLACEMENT_3D ( 'NONE', #44, #104, #26 ) ;
#5 = CARTESIAN_POINT ( 'NONE',  ( 1.047444401652940007E-14, -3.673940397442060854E-16, 3.000000000000000000 ) ) ;
#6 = APPLICATION_CONTEXT ( 'configuration controlled 3d designs of mechanical parts and assemblies' ) ;
#7 = CLOSED_SHELL ( 'NONE', ( #211, #170, #126 ) ) ;
#8 = DIRECTION ( 'NONE',  ( -3.491481338843133355E-15, 1.224646799147353454E-16, -1.000000000000000000 ) ) ;
#9 = DATE_AND_TIME ( #137, #223 ) ;
#10 = DIRECTION ( 'NONE',  ( 0.000000000000000000, 1.000000000000000000, 0.000000000000000000 ) ) ;
#11 = ORIENTED_EDGE ( 'NONE', *, *, #162, .F. ) ;
#12 = DATE_AND_TIME ( #218, #226 ) ;
#13 = APPROVAL ( #123, 'UNSPECIFIED' ) ;
#14 = FACE_OUTER_BOUND ( 'NONE', #207, .T. ) ;
#15 = COORDINATED_UNIVERSAL_TIME_OFFSET ( 1, 0, .AHEAD. ) ;
#16 = FACE_OUTER_BOUND ( 'NONE', #48, .T. ) ;
#17 =( LENGTH_UNIT ( ) NAMED_UNIT ( * ) SI_UNIT ( .MILLI., .METRE. ) );
#18 = CC_DESIGN_PERSON_AND_ORGANIZATION_ASSIGNMENT ( #156, #197, ( #187 ) ) ;
#19 = FACE_OUTER_BOUND ( 'NONE', #124, .T. ) ;
#20 = FACE_OUTER_BOUND ( 'NONE', #59, .T. ) ;
#21 = CALENDAR_DATE ( 2024, 12, 7 ) ;
#22 = AXIS2_PLACEMENT_3D ( 'NONE', #214, #109, #41 ) ;
#23 = ORIENTED_EDGE ( 'NONE', *, *, #230, .T. ) ;
#24 = APPROVAL_DATE_TIME ( #69, #179 ) ;
#25 = FACE_OUTER_BOUND ( 'NONE', #163, .T. ) ;
#26 = DIRECTION ( 'NONE',  ( 1.000000000000000000, 0.000000000000000000, 0.000000000000000000 ) ) ;
#27 = APPROVAL_PERSON_ORGANIZATION ( #121, #179, #234 ) ;
#28 = DIRECTION ( 'NONE',  ( 3.491481338843133355E-15, -1.224646799147353454E-16, 1.000000000000000000 ) ) ;
#29 = PERSON_AND_ORGANIZATION ( #51, #47 ) ;
#30 = ADVANCED_FACE ( 'NONE', ( #138 ), #68, .F. ) ;
#31 = DIRECTION ( 'NONE',  ( 4.275831445896959482E-31, 1.000000000000000000, 1.224646799147353454E-16 ) ) ;
#32 = DIRECTION ( 'NONE',  ( 0.000000000000000000, 1.000000000000000000, 0.000000000000000000 ) ) ;
#33 = UNCERTAINTY_MEASURE_WITH_UNIT (LENGTH_MEASURE( 1.000000000000000082E-05 ), #17, 'distance_accuracy_value', 'NONE');
#34 = CIRCLE ( 'NONE', #224, 0.7999999999999998224 ) ;
#35 = VERTEX_POINT ( 'NONE', #208 ) ;
#36 = VERTEX_POINT ( 'NONE', #54 ) ;
#37 = DIRECTION ( 'NONE',  ( -3.491481338843133355E-15, 1.224646799147353454E-16, -1.000000000000000000 ) ) ;
#38 = AXIS2_PLACEMENT_3D ( 'NONE', #177, #201, #105 ) ;
#39 = ORIENTED_EDGE ( 'NONE', *, *, #53, .F. ) ;
#40 = APPLICATION_CONTEXT ( 'configuration controlled 3d designs of mechanical parts and assemblies' ) ;
#41 = DIRECTION ( 'NONE',  ( 0.000000000000000000, 1.000000000000000000, 0.000000000000000000 ) ) ;
#42 = SHAPE_DEFINITION_REPRESENTATION ( #233, #150 ) ;
#43 = DIRECTION ( 'NONE',  ( -3.491481338843133355E-15, 1.224646799147353454E-16, -1.000000000000000000 ) ) ;
#44 = CARTESIAN_POINT ( 'NONE',  ( 0.000000000000000000, 0.000000000000000000, 0.000000000000000000 ) ) ;
#45 = ORIENTED_EDGE ( 'NONE', *, *, #230, .F. ) ;
#46 = APPLICATION_PROTOCOL_DEFINITION ( 'international standard', 'config_control_design', 1994, #6 ) ;
#47 = ORGANIZATION ( 'UNSPECIFIED', 'UNSPECIFIED', '' ) ;
#48 = EDGE_LOOP ( 'NONE', ( #180 ) ) ;
#49 = PLANE ( 'NONE',  #169 ) ;
#50 = CC_DESIGN_APPROVAL ( #179, ( #159 ) ) ;
#51 = PERSON ( 'UNSPECIFIED', 'UNSPECIFIED', 'UNSPECIFIED', ('UNSPECIFIED'), ('UNSPECIFIED'), ('UNSPECIFIED') ) ;
#52 = AXIS2_PLACEMENT_3D ( 'NONE', #119, #236, #31 ) ;
#53 = EDGE_CURVE ( 'NONE', #96, #96, #34, .T. ) ;
#54 = CARTESIAN_POINT ( 'NONE',  ( 1.047444401652940007E-14, 0.9999999999999995559, 3.000000000000000000 ) ) ;
#55 = CARTESIAN_POINT ( 'NONE',  ( 2.094888803305880013E-14, -7.347880794884121708E-16, 6.000000000000000000 ) ) ;
#56 = CARTESIAN_POINT ( 'NONE',  ( 8.552847072295026068E-47, 1.000000000000000000, 0.000000000000000000 ) ) ;
#57 = CARTESIAN_POINT ( 'NONE',  ( 2.094888803305880013E-14, 0.7999999999999992673, 6.000000000000000000 ) ) ;
#58 = AXIS2_PLACEMENT_3D ( 'NONE', #90, #221, #127 ) ;
#59 = EDGE_LOOP ( 'NONE', ( #88 ) ) ;
#60 = DATE_TIME_ROLE ( 'classification_date' ) ;
#61 = ADVANCED_FACE ( 'NONE', ( #20, #175 ), #155, .T. ) ;
#62 = ORIENTED_EDGE ( 'NONE', *, *, #193, .F. ) ;
#63 = PERSON_AND_ORGANIZATION ( #51, #47 ) ;
#64 = CC_DESIGN_PERSON_AND_ORGANIZATION_ASSIGNMENT ( #195, #158, ( #185 ) ) ;
#65 = CARTESIAN_POINT ( 'NONE',  ( -4.275831445896958607E-31, 1.499759782661858155E-32, -1.224646799147353454E-16 ) ) ;
#66 = COORDINATED_UNIVERSAL_TIME_OFFSET ( 1, 0, .AHEAD. ) ;
#67 = DIRECTION ( 'NONE',  ( 4.275831445896960358E-31, 1.000000000000000000, 1.224646799147353454E-16 ) ) ;
#68 = PLANE ( 'NONE',  #38 ) ;
#69 = DATE_AND_TIME ( #21, #94 ) ;
#70 = CARTESIAN_POINT ( 'NONE',  ( 2.863014697851376293E-14, -1.004210375300832238E-15, 8.200000000000020606 ) ) ;
#71 = CC_DESIGN_APPROVAL ( #13, ( #185 ) ) ;
#72 = CONICAL_SURFACE ( 'NONE', #22, 2.499999999999998224, 0.7853981633974479459 ) ;
#73 = CARTESIAN_POINT ( 'NONE',  ( 1.448964755619900406E-13, -5.082284216461516537E-15, 41.50000000000000000 ) ) ;
#74 =( NAMED_UNIT ( * ) SI_UNIT ( $, .STERADIAN. ) SOLID_ANGLE_UNIT ( ) );
#75 = AXIS2_PLACEMENT_3D ( 'NONE', #206, #228, #3 ) ;
#76 = CARTESIAN_POINT ( 'NONE',  ( 1.466422162314116009E-13, 2.499999999999992895, 42.00000000000000000 ) ) ;
#77 = MANIFOLD_SOLID_BREP ( 'Corps-Déplacer/Copier1[2]', #7 ) ;
#78 = DIRECTION ( 'NONE',  ( -3.491481338843133355E-15, 1.224646799147353454E-16, -1.000000000000000000 ) ) ;
#79 = CC_DESIGN_SECURITY_CLASSIFICATION ( #168, ( #159 ) ) ;
#80 = ORIENTED_EDGE ( 'NONE', *, *, #53, .T. ) ;
#81 = EDGE_CURVE ( 'NONE', #225, #225, #101, .T. ) ;
#82 = APPROVAL_STATUS ( 'not_yet_approved' ) ;
#83 = ORIENTED_EDGE ( 'NONE', *, *, #111, .T. ) ;
#84 = PERSON_AND_ORGANIZATION_ROLE ( 'creator' ) ;
#85 = FACE_OUTER_BOUND ( 'NONE', #239, .T. ) ;
#86 = PERSON_AND_ORGANIZATION_ROLE ( 'design_supplier' ) ;
#87 = EDGE_LOOP ( 'NONE', ( #83 ) ) ;
#88 = ORIENTED_EDGE ( 'NONE', *, *, #147, .T. ) ;
#89 = APPROVAL_DATE_TIME ( #12, #160 ) ;
#90 = CARTESIAN_POINT ( 'NONE',  ( 2.094888803305880013E-14, -7.347880794884121708E-16, 6.000000000000000000 ) ) ;
#91 = APPROVAL_PERSON_ORGANIZATION ( #173, #13, #237 ) ;
#92 = CIRCLE ( 'NONE', #58, 0.8000000000000000444 ) ;
#93 = CC_DESIGN_PERSON_AND_ORGANIZATION_ASSIGNMENT ( #29, #84, ( #159 ) ) ;
#94 = LOCAL_TIME ( 11, 23, 3.000000000000000000, #133 ) ;
#95 = AXIS2_PLACEMENT_3D ( 'NONE', #172, #231, #189 ) ;
#96 = VERTEX_POINT ( 'NONE', #152 ) ;
#97 = FACE_BOUND ( 'NONE', #219, .T. ) ;
#98 = ADVANCED_FACE ( 'NONE', ( #196, #161 ), #72, .T. ) ;
#99 = FACE_OUTER_BOUND ( 'NONE', #232, .T. ) ;
#100 = ORIENTED_EDGE ( 'NONE', *, *, #81, .F. ) ;
#101 = CIRCLE ( 'NONE', #191, 1.000000000000000000 ) ;
#102 = MECHANICAL_CONTEXT ( 'NONE', #40, 'mechanical' ) ;
#103 = EDGE_LOOP ( 'NONE', ( #100 ) ) ;
#104 = DIRECTION ( 'NONE',  ( 0.000000000000000000, 0.000000000000000000, 1.000000000000000000 ) ) ;
#105 = DIRECTION ( 'NONE',  ( 4.275831445896959482E-31, 1.000000000000000000, 1.224646799147353454E-16 ) ) ;
#106 = APPROVAL_DATE_TIME ( #108, #13 ) ;
#107 = EDGE_LOOP ( 'NONE', ( #39 ) ) ;
#108 = DATE_AND_TIME ( #176, #144 ) ;
#109 = DIRECTION ( 'NONE',  ( -3.491481338843133355E-15, 1.224646799147353454E-16, -1.000000000000000000 ) ) ;
#110 = DIRECTION ( 'NONE',  ( -4.275831445896959482E-31, -1.000000000000000000, -1.224646799147353454E-16 ) ) ;
#111 = EDGE_CURVE ( 'NONE', #131, #131, #209, .T. ) ;
#112 = CIRCLE ( 'NONE', #243, 2.999999999999998224 ) ;
#113 = PRODUCT_RELATED_PRODUCT_CATEGORY ( 'detail', '', ( #187 ) ) ;
#114 = AXIS2_PLACEMENT_3D ( 'NONE', #199, #28, #182 ) ;
#115 = ADVANCED_FACE ( 'NONE', ( #220, #85 ), #120, .T. ) ;
#116 = CYLINDRICAL_SURFACE ( 'NONE', #95, 1.000000000000000000 ) ;
#117 = ORIENTED_EDGE ( 'NONE', *, *, #147, .F. ) ;
#118 = SECURITY_CLASSIFICATION_LEVEL ( 'unclassified' ) ;
#119 = CARTESIAN_POINT ( 'NONE',  ( 0.000000000000000000, 0.000000000000000000, 0.000000000000000000 ) ) ;
#120 = CYLINDRICAL_SURFACE ( 'NONE', #2, 2.999999999999996891 ) ;
#121 = PERSON_AND_ORGANIZATION ( #51, #47 ) ;
#122 = DIRECTION ( 'NONE',  ( 0.000000000000000000, 1.000000000000000000, 0.000000000000000000 ) ) ;
#123 = APPROVAL_STATUS ( 'not_yet_approved' ) ;
#124 = EDGE_LOOP ( 'NONE', ( #153 ) ) ;
#125 = APPLICATION_PROTOCOL_DEFINITION ( 'international standard', 'config_control_design', 1994, #40 ) ;
#126 = ADVANCED_FACE ( 'NONE', ( #25 ), #238, .T. ) ;
#127 = DIRECTION ( 'NONE',  ( 0.000000000000000000, 1.000000000000000000, 0.000000000000000000 ) ) ;
#128 = CLOSED_SHELL ( 'NONE', ( #141, #61, #242, #115, #98, #30 ) ) ;
#129 = CC_DESIGN_PERSON_AND_ORGANIZATION_ASSIGNMENT ( #63, #140, ( #168 ) ) ;
#130 = CARTESIAN_POINT ( 'NONE',  ( 2.863014697851376293E-14, 2.999999999999994671, 8.200000000000020606 ) ) ;
#131 = VERTEX_POINT ( 'NONE', #76 ) ;
#132 = EDGE_LOOP ( 'NONE', ( #11 ) ) ;
#133 = COORDINATED_UNIVERSAL_TIME_OFFSET ( 1, 0, .AHEAD. ) ;
#134 = DIRECTION ( 'NONE',  ( 4.275831445896959482E-31, 1.000000000000000000, 1.224646799147353454E-16 ) ) ;
#135 = PERSON_AND_ORGANIZATION ( #51, #47 ) ;
#136 = CARTESIAN_POINT ( 'NONE',  ( 0.000000000000000000, 0.000000000000000000, 0.000000000000000000 ) ) ;
#137 = CALENDAR_DATE ( 2024, 12, 7 ) ;
#138 = FACE_OUTER_BOUND ( 'NONE', #198, .T. ) ;
#139 = DIRECTION ( 'NONE',  ( -3.491481338843133355E-15, 1.224646799147353454E-16, -1.000000000000000000 ) ) ;
#140 = PERSON_AND_ORGANIZATION_ROLE ( 'classification_officer' ) ;
#141 = ADVANCED_FACE ( 'NONE', ( #14 ), #49, .F. ) ;
#142 = LOCAL_TIME ( 11, 23, 3.000000000000000000, #66 ) ;
#143 = DIRECTION ( 'NONE',  ( 3.491481338843133355E-15, -1.224646799147353454E-16, 1.000000000000000000 ) ) ;
#144 = LOCAL_TIME ( 11, 23, 3.000000000000000000, #15 ) ;
#145 = DESIGN_CONTEXT ( 'detailed design', #6, 'design' ) ;
#146 = DIRECTION ( 'NONE',  ( 0.000000000000000000, -1.000000000000000000, 0.000000000000000000 ) ) ;
#147 = EDGE_CURVE ( 'NONE', #192, #192, #92, .T. ) ;
#148 = CIRCLE ( 'NONE', #174, 2.999999999999995559 ) ;
#149 = VERTEX_POINT ( 'NONE', #130 ) ;
#150 = ADVANCED_BREP_SHAPE_REPRESENTATION ( '66785', ( #1, #77, #4 ), #184 ) ;
#151 = PLANE ( 'NONE',  #75 ) ;
#152 = CARTESIAN_POINT ( 'NONE',  ( 1.047444401652940007E-14, 0.7999999999999994893, 3.000000000000000000 ) ) ;
#153 = ORIENTED_EDGE ( 'NONE', *, *, #162, .T. ) ;
#154 = CALENDAR_DATE ( 2024, 12, 7 ) ;
#155 = CYLINDRICAL_SURFACE ( 'NONE', #52, 0.7999999999999999334 ) ;
#156 = PERSON_AND_ORGANIZATION ( #51, #47 ) ;
#157 = ORIENTED_EDGE ( 'NONE', *, *, #81, .T. ) ;
#158 = PERSON_AND_ORGANIZATION_ROLE ( 'creator' ) ;
#159 = PRODUCT_DEFINITION_FORMATION_WITH_SPECIFIED_SOURCE ( 'ANY', '', #187, .NOT_KNOWN. ) ;
#160 = APPROVAL ( #178, 'UNSPECIFIED' ) ;
#161 = FACE_BOUND ( 'NONE', #87, .T. ) ;
#162 = EDGE_CURVE ( 'NONE', #149, #149, #148, .T. ) ;
#163 = EDGE_LOOP ( 'NONE', ( #62 ) ) ;
#164 = PERSON_AND_ORGANIZATION ( #51, #47 ) ;
#165 = FACE_OUTER_BOUND ( 'NONE', #103, .T. ) ;
#166 = CONICAL_SURFACE ( 'NONE', #227, 0.8000000000000000444, 0.7853981633974428389 ) ;
#167 = AXIS2_PLACEMENT_3D ( 'NONE', #183, #139, #10 ) ;
#168 = SECURITY_CLASSIFICATION ( '', '', #118 ) ;
#169 = AXIS2_PLACEMENT_3D ( 'NONE', #241, #143, #110 ) ;
#170 = ADVANCED_FACE ( 'NONE', ( #16, #165 ), #116, .T. ) ;
#171 = DIRECTION ( 'NONE',  ( 3.491481338843133355E-15, -1.224646799147353454E-16, 1.000000000000000000 ) ) ;
#172 = CARTESIAN_POINT ( 'NONE',  ( 0.000000000000000000, 0.000000000000000000, 0.000000000000000000 ) ) ;
#173 = PERSON_AND_ORGANIZATION ( #51, #47 ) ;
#174 = AXIS2_PLACEMENT_3D ( 'NONE', #70, #202, #32 ) ;
#175 = FACE_OUTER_BOUND ( 'NONE', #107, .T. ) ;
#176 = CALENDAR_DATE ( 2024, 12, 7 ) ;
#177 = CARTESIAN_POINT ( 'NONE',  ( 1.466422162314116009E-13, 1.874699728327313799E-32, 42.00000000000000000 ) ) ;
#178 = APPROVAL_STATUS ( 'not_yet_approved' ) ;
#179 = APPROVAL ( #82, 'UNSPECIFIED' ) ;
#180 = ORIENTED_EDGE ( 'NONE', *, *, #193, .T. ) ;
#181 = APPROVAL_ROLE ( '' ) ;
#182 = DIRECTION ( 'NONE',  ( -4.275831445896959482E-31, -1.000000000000000000, -1.224646799147353454E-16 ) ) ;
#183 = CARTESIAN_POINT ( 'NONE',  ( 1.466422162314116009E-13, -5.143516556418884900E-15, 42.00000000000000000 ) ) ;
#184 =( GEOMETRIC_REPRESENTATION_CONTEXT ( 3 ) GLOBAL_UNCERTAINTY_ASSIGNED_CONTEXT ( ( #33 ) ) GLOBAL_UNIT_ASSIGNED_CONTEXT ( ( #17, #205, #74 ) ) REPRESENTATION_CONTEXT ( 'NONE', 'WORKASPACE' ) );
#185 = PRODUCT_DEFINITION ( 'UNKNOWN', '', #159, #145 ) ;
#186 = CC_DESIGN_APPROVAL ( #160, ( #168 ) ) ;
#187 = PRODUCT ( '66785', '66785', '', ( #102 ) ) ;
#188 = DIRECTION ( 'NONE',  ( 0.000000000000000000, 1.000000000000000000, 0.000000000000000000 ) ) ;
#189 = DIRECTION ( 'NONE',  ( 4.275831445896959482E-31, 1.000000000000000000, 1.224646799147353454E-16 ) ) ;
#190 = AXIS2_PLACEMENT_3D ( 'NONE', #5, #78, #210 ) ;
#191 = AXIS2_PLACEMENT_3D ( 'NONE', #65, #235, #134 ) ;
#192 = VERTEX_POINT ( 'NONE', #57 ) ;
#193 = EDGE_CURVE ( 'NONE', #36, #36, #216, .T. ) ;
#194 = CARTESIAN_POINT ( 'NONE',  ( 1.047444401652940007E-14, -3.673940397442060854E-16, 3.000000000000000000 ) ) ;
#195 = PERSON_AND_ORGANIZATION ( #51, #47 ) ;
#196 = FACE_OUTER_BOUND ( 'NONE', #217, .T. ) ;
#197 = PERSON_AND_ORGANIZATION_ROLE ( 'design_owner' ) ;
#198 = EDGE_LOOP ( 'NONE', ( #212 ) ) ;
#199 = CARTESIAN_POINT ( 'NONE',  ( 1.047444401652940007E-14, 7.498798913309283934E-33, 3.000000000000000000 ) ) ;
#200 = COORDINATED_UNIVERSAL_TIME_OFFSET ( 1, 0, .AHEAD. ) ;
#201 = DIRECTION ( 'NONE',  ( -3.491481338843133355E-15, 1.224646799147353454E-16, -1.000000000000000000 ) ) ;
#202 = DIRECTION ( 'NONE',  ( -3.491481338843133355E-15, 1.224646799147353454E-16, -1.000000000000000000 ) ) ;
#203 = CC_DESIGN_DATE_AND_TIME_ASSIGNMENT ( #240, #60, ( #168 ) ) ;
#204 = APPROVAL_PERSON_ORGANIZATION ( #135, #160, #181 ) ;
#205 =( NAMED_UNIT ( * ) PLANE_ANGLE_UNIT ( ) SI_UNIT ( $, .RADIAN. ) );
#206 = CARTESIAN_POINT ( 'NONE',  ( -2.137915722948479303E-31, 7.498798913309290776E-33, -6.123233995736767268E-17 ) ) ;
#207 = EDGE_LOOP ( 'NONE', ( #80 ) ) ;
#208 = CARTESIAN_POINT ( 'NONE',  ( 1.448964755619900406E-13, 2.999999999999993339, 41.50000000000000000 ) ) ;
#209 = CIRCLE ( 'NONE', #167, 2.499999999999998224 ) ;
#210 = DIRECTION ( 'NONE',  ( 0.000000000000000000, 1.000000000000000000, 0.000000000000000000 ) ) ;
#211 = ADVANCED_FACE ( 'NONE', ( #99 ), #151, .T. ) ;
#212 = ORIENTED_EDGE ( 'NONE', *, *, #111, .F. ) ;
#213 = DATE_TIME_ROLE ( 'creation_date' ) ;
#214 = CARTESIAN_POINT ( 'NONE',  ( 1.466422162314116009E-13, -5.143516556418884900E-15, 42.00000000000000000 ) ) ;
#215 = COORDINATED_UNIVERSAL_TIME_OFFSET ( 1, 0, .AHEAD. ) ;
#216 = CIRCLE ( 'NONE', #190, 1.000000000000000000 ) ;
#217 = EDGE_LOOP ( 'NONE', ( #45 ) ) ;
#218 = CALENDAR_DATE ( 2024, 12, 7 ) ;
#219 = EDGE_LOOP ( 'NONE', ( #117 ) ) ;
#220 = FACE_OUTER_BOUND ( 'NONE', #132, .T. ) ;
#221 = DIRECTION ( 'NONE',  ( -3.491481338843133355E-15, 1.224646799147353454E-16, -1.000000000000000000 ) ) ;
#222 = CC_DESIGN_DATE_AND_TIME_ASSIGNMENT ( #9, #213, ( #185 ) ) ;
#223 = LOCAL_TIME ( 11, 23, 3.000000000000000000, #200 ) ;
#224 = AXIS2_PLACEMENT_3D ( 'NONE', #194, #8, #122 ) ;
#225 = VERTEX_POINT ( 'NONE', #56 ) ;
#226 = LOCAL_TIME ( 11, 23, 3.000000000000000000, #215 ) ;
#227 = AXIS2_PLACEMENT_3D ( 'NONE', #55, #171, #146 ) ;
#228 = DIRECTION ( 'NONE',  ( -3.491481338843133355E-15, 1.224646799147353454E-16, -1.000000000000000000 ) ) ;
#229 = CC_DESIGN_PERSON_AND_ORGANIZATION_ASSIGNMENT ( #164, #86, ( #159 ) ) ;
#230 = EDGE_CURVE ( 'NONE', #35, #35, #112, .T. ) ;
#231 = DIRECTION ( 'NONE',  ( -3.491481338843133355E-15, 1.224646799147353454E-16, -1.000000000000000000 ) ) ;
#232 = EDGE_LOOP ( 'NONE', ( #157 ) ) ;
#233 = PRODUCT_DEFINITION_SHAPE ( 'NONE', 'NONE',  #185 ) ;
#234 = APPROVAL_ROLE ( '' ) ;
#235 = DIRECTION ( 'NONE',  ( -3.491481338843133355E-15, 1.224646799147353454E-16, -1.000000000000000000 ) ) ;
#236 = DIRECTION ( 'NONE',  ( -3.491481338843133355E-15, 1.224646799147353454E-16, -1.000000000000000000 ) ) ;
#237 = APPROVAL_ROLE ( '' ) ;
#238 = PLANE ( 'NONE',  #114 ) ;
#239 = EDGE_LOOP ( 'NONE', ( #23 ) ) ;
#240 = DATE_AND_TIME ( #154, #142 ) ;
#241 = CARTESIAN_POINT ( 'NONE',  ( 1.047444401652940007E-14, 5.999039130647427010E-33, 3.000000000000000000 ) ) ;
#242 = ADVANCED_FACE ( 'NONE', ( #19, #97 ), #166, .T. ) ;
#243 = AXIS2_PLACEMENT_3D ( 'NONE', #73, #37, #188 ) ;
ENDSEC;
END-ISO-10303-21;
