ISO-10303-21;
HEADER;
FILE_DESCRIPTION (( 'STEP AP203' ),
    '1' );
FILE_NAME ('667.step',
    '2021-12-06T13:00:10',
    ( '' ),
    ( '' ),
    'SwSTEP 2.0',
    'SolidWorks 2019',
    '' );
FILE_SCHEMA (( 'CONFIG_CONTROL_DESIGN' ));
ENDSEC;

DATA;
#1 = FACE_OUTER_BOUND ( 'NONE', #107, .T. ) ;
#2 = DIRECTION ( 'NONE',  ( -3.491481338843133355E-15, 1.224646799147353207E-16, -1.000000000000000000 ) ) ;
#3 = DIRECTION ( 'NONE',  ( 3.491481338843133355E-15, -1.224646799147353207E-16, 1.000000000000000000 ) ) ;
#4 = EDGE_CURVE ( 'NONE', #84, #84, #44, .T. ) ;
#5 = APPROVAL_PERSON_ORGANIZATION ( #40, #12, #128 ) ;
#6 = VERTEX_POINT ( 'NONE', #24 ) ;
#7 = APPLICATION_PROTOCOL_DEFINITION ( 'international standard', 'config_control_design', 1994, #18 ) ;
#8 = DIRECTION ( 'NONE',  ( 4.275831445896958607E-31, 1.000000000000000000, 1.224646799147353207E-16 ) ) ;
#9 = PERSON_AND_ORGANIZATION ( #159, #124 ) ;
#10 = CIRCLE ( 'NONE', #104, 25.00000000000000000 ) ;
#11 = APPROVAL_STATUS ( 'not_yet_approved' ) ;
#12 = APPROVAL ( #102, 'UNSPECIFIED' ) ;
#13 = MECHANICAL_CONTEXT ( 'NONE', #18, 'mechanical' ) ;
#14 = DIRECTION ( 'NONE',  ( -3.491481338843133355E-15, 1.224646799147353207E-16, -1.000000000000000000 ) ) ;
#15 = LOCAL_TIME ( 14, 0, 10.00000000000000000, #61 ) ;
#16 = APPROVAL_ROLE ( '' ) ;
#17 = CARTESIAN_POINT ( 'NONE',  ( -3.955144087454686842E-30, 6.500000000000000000, -1.132798289211301895E-15 ) ) ;
#18 = APPLICATION_CONTEXT ( 'configuration controlled 3d designs of mechanical parts and assemblies' ) ;
#19 = ORIENTED_EDGE ( 'NONE', *, *, #4, .F. ) ;
#20 = FACE_BOUND ( 'NONE', #41, .T. ) ;
#21 = DIRECTION ( 'NONE',  ( -4.275831445896958607E-31, -1.000000000000000000, -1.224646799147353207E-16 ) ) ;
#22 = AXIS2_PLACEMENT_3D ( 'NONE', #17, #14, #119 ) ;
#23 = AXIS2_PLACEMENT_3D ( 'NONE', #135, #3, #21 ) ;
#24 = CARTESIAN_POINT ( 'NONE',  ( 1.396592535537253342E-14, 6.499999999999999112, 4.000000000000000000 ) ) ;
#25 = PERSON_AND_ORGANIZATION ( #159, #124 ) ;
#26 = ADVANCED_FACE ( 'NONE', ( #68, #20 ), #147, .T. ) ;
#27 = DATE_AND_TIME ( #64, #15 ) ;
#28 = CC_DESIGN_SECURITY_CLASSIFICATION ( #150, ( #125 ) ) ;
#29 = ORIENTED_EDGE ( 'NONE', *, *, #164, .F. ) ;
#30 = CC_DESIGN_PERSON_AND_ORGANIZATION_ASSIGNMENT ( #9, #36, ( #150 ) ) ;
#31 = EDGE_LOOP ( 'NONE', ( #146 ) ) ;
#32 = CARTESIAN_POINT ( 'NONE',  ( 0.0000000000000000000, 25.00000000000000000, 0.0000000000000000000 ) ) ;
#33 = VERTEX_POINT ( 'NONE', #126 ) ;
#34 = CC_DESIGN_APPROVAL ( #116, ( #125 ) ) ;
#35 = CALENDAR_DATE ( 2021, 6, 12 ) ;
#36 = PERSON_AND_ORGANIZATION_ROLE ( 'classification_officer' ) ;
#37 = CC_DESIGN_APPROVAL ( #57, ( #83 ) ) ;
#38 = COORDINATED_UNIVERSAL_TIME_OFFSET ( 1, 0, .AHEAD. ) ;
#39 = ADVANCED_BREP_SHAPE_REPRESENTATION ( '667', ( #45, #153 ), #85 ) ;
#40 = PERSON_AND_ORGANIZATION ( #159, #124 ) ;
#41 = EDGE_LOOP ( 'NONE', ( #19 ) ) ;
#42 = ORIENTED_EDGE ( 'NONE', *, *, #67, .T. ) ;
#43 = EDGE_LOOP ( 'NONE', ( #53 ) ) ;
#44 = CIRCLE ( 'NONE', #140, 6.500000000000000000 ) ;
#45 = MANIFOLD_SOLID_BREP ( 'Corps-Déplacer/Copier1', #161 ) ;
#46 = CYLINDRICAL_SURFACE ( 'NONE', #63, 25.00000000000000000 ) ;
#47 =( NAMED_UNIT ( * ) SI_UNIT ( $, .STERADIAN. ) SOLID_ANGLE_UNIT ( ) );
#48 = DATE_AND_TIME ( #118, #101 ) ;
#49 = PERSON_AND_ORGANIZATION_ROLE ( 'creator' ) ;
#50 = PERSON_AND_ORGANIZATION ( #159, #124 ) ;
#51 = APPROVAL_PERSON_ORGANIZATION ( #138, #116, #98 ) ;
#52 = DATE_TIME_ROLE ( 'classification_date' ) ;
#53 = ORIENTED_EDGE ( 'NONE', *, *, #95, .T. ) ;
#54 = CC_DESIGN_PERSON_AND_ORGANIZATION_ASSIGNMENT ( #166, #120, ( #125 ) ) ;
#55 = CYLINDRICAL_SURFACE ( 'NONE', #87, 6.500000000000000000 ) ;
#56 = DIRECTION ( 'NONE',  ( 4.275831445896958607E-31, 1.000000000000000000, 1.224646799147353207E-16 ) ) ;
#57 = APPROVAL ( #90, 'UNSPECIFIED' ) ;
#58 = AXIS2_PLACEMENT_3D ( 'NONE', #60, #137, #148 ) ;
#59 = VERTEX_POINT ( 'NONE', #32 ) ;
#60 = CARTESIAN_POINT ( 'NONE',  ( -1.068957861474239634E-29, 3.749399456654644239E-31, -3.061616997868383043E-15 ) ) ;
#61 = COORDINATED_UNIVERSAL_TIME_OFFSET ( 1, 0, .AHEAD. ) ;
#62 = CARTESIAN_POINT ( 'NONE',  ( 0.0000000000000000000, 0.0000000000000000000, 0.0000000000000000000 ) ) ;
#63 = AXIS2_PLACEMENT_3D ( 'NONE', #96, #110, #8 ) ;
#64 = CALENDAR_DATE ( 2021, 6, 12 ) ;
#65 = DIRECTION ( 'NONE',  ( -3.491481338843133355E-15, 1.224646799147353207E-16, -1.000000000000000000 ) ) ;
#66 = DESIGN_CONTEXT ( 'detailed design', #129, 'design' ) ;
#67 = EDGE_CURVE ( 'NONE', #33, #33, #10, .T. ) ;
#68 = FACE_OUTER_BOUND ( 'NONE', #79, .T. ) ;
#69 = PLANE ( 'NONE',  #23 ) ;
#70 = CARTESIAN_POINT ( 'NONE',  ( 0.0000000000000000000, 6.500000000000000000, 0.0000000000000000000 ) ) ;
#71 = COORDINATED_UNIVERSAL_TIME_OFFSET ( 1, 0, .AHEAD. ) ;
#72 = PERSON_AND_ORGANIZATION ( #159, #124 ) ;
#73 = SHAPE_DEFINITION_REPRESENTATION ( #109, #39 ) ;
#74 = PRODUCT ( '667', '667', '', ( #13 ) ) ;
#75 = PERSON_AND_ORGANIZATION ( #159, #124 ) ;
#76 = CALENDAR_DATE ( 2021, 6, 12 ) ;
#77 = LOCAL_TIME ( 14, 0, 10.00000000000000000, #38 ) ;
#78 = CARTESIAN_POINT ( 'NONE',  ( -2.779290439833023007E-30, 9.748438587302075546E-32, -7.960204194457795477E-16 ) ) ;
#79 = EDGE_LOOP ( 'NONE', ( #131 ) ) ;
#80 = EDGE_LOOP ( 'NONE', ( #29 ) ) ;
#81 = LOCAL_TIME ( 14, 0, 10.00000000000000000, #132 ) ;
#82 = FACE_OUTER_BOUND ( 'NONE', #31, .T. ) ;
#83 = PRODUCT_DEFINITION ( 'UNKNOWN', '', #125, #66 ) ;
#84 = VERTEX_POINT ( 'NONE', #70 ) ;
#85 =( GEOMETRIC_REPRESENTATION_CONTEXT ( 3 ) GLOBAL_UNCERTAINTY_ASSIGNED_CONTEXT ( ( #156 ) ) GLOBAL_UNIT_ASSIGNED_CONTEXT ( ( #112, #113, #47 ) ) REPRESENTATION_CONTEXT ( 'NONE', 'WORKASPACE' ) );
#86 = DATE_AND_TIME ( #35, #77 ) ;
#87 = AXIS2_PLACEMENT_3D ( 'NONE', #103, #2, #56 ) ;
#88 = COORDINATED_UNIVERSAL_TIME_OFFSET ( 1, 0, .AHEAD. ) ;
#89 = PRODUCT_RELATED_PRODUCT_CATEGORY ( 'detail', '', ( #74 ) ) ;
#90 = APPROVAL_STATUS ( 'not_yet_approved' ) ;
#91 = DIRECTION ( 'NONE',  ( 4.740750632337811128E-31, 1.000000000000000000, 1.334402673828313093E-16 ) ) ;
#92 = DIRECTION ( 'NONE',  ( -3.491481338843133355E-15, 1.224646799147353207E-16, -1.000000000000000000 ) ) ;
#93 = APPROVAL_PERSON_ORGANIZATION ( #75, #57, #16 ) ;
#94 = ADVANCED_FACE ( 'NONE', ( #1, #122 ), #55, .F. ) ;
#95 = EDGE_CURVE ( 'NONE', #6, #6, #168, .T. ) ;
#96 = CARTESIAN_POINT ( 'NONE',  ( 0.0000000000000000000, 0.0000000000000000000, 0.0000000000000000000 ) ) ;
#97 = LOCAL_TIME ( 14, 0, 10.00000000000000000, #88 ) ;
#98 = APPROVAL_ROLE ( '' ) ;
#99 = PERSON_AND_ORGANIZATION_ROLE ( 'design_owner' ) ;
#100 = ADVANCED_FACE ( 'NONE', ( #144, #82 ), #69, .T. ) ;
#101 = LOCAL_TIME ( 14, 0, 10.00000000000000000, #71 ) ;
#102 = APPROVAL_STATUS ( 'not_yet_approved' ) ;
#103 = CARTESIAN_POINT ( 'NONE',  ( 0.0000000000000000000, 0.0000000000000000000, 0.0000000000000000000 ) ) ;
#104 = AXIS2_PLACEMENT_3D ( 'NONE', #143, #65, #121 ) ;
#105 = CARTESIAN_POINT ( 'NONE',  ( 1.396592535537253027E-14, -4.898587196589411843E-16, 3.999999999999999112 ) ) ;
#106 = EDGE_LOOP ( 'NONE', ( #42 ) ) ;
#107 = EDGE_LOOP ( 'NONE', ( #134 ) ) ;
#108 = AXIS2_PLACEMENT_3D ( 'NONE', #105, #157, #91 ) ;
#109 = PRODUCT_DEFINITION_SHAPE ( 'NONE', 'NONE',  #83 ) ;
#110 = DIRECTION ( 'NONE',  ( -3.491481338843133355E-15, 1.224646799147353207E-16, -1.000000000000000000 ) ) ;
#111 = CIRCLE ( 'NONE', #58, 25.00000000000000000 ) ;
#112 =( LENGTH_UNIT ( ) NAMED_UNIT ( * ) SI_UNIT ( .MILLI., .METRE. ) );
#113 =( NAMED_UNIT ( * ) PLANE_ANGLE_UNIT ( ) SI_UNIT ( $, .RADIAN. ) );
#114 = DIRECTION ( 'NONE',  ( 1.000000000000000000, 0.0000000000000000000, 0.0000000000000000000 ) ) ;
#115 = APPROVAL_DATE_TIME ( #27, #116 ) ;
#116 = APPROVAL ( #11, 'UNSPECIFIED' ) ;
#117 = APPLICATION_PROTOCOL_DEFINITION ( 'international standard', 'config_control_design', 1994, #129 ) ;
#118 = CALENDAR_DATE ( 2021, 6, 12 ) ;
#119 = DIRECTION ( 'NONE',  ( 4.275831445896958607E-31, 1.000000000000000000, 1.224646799147353207E-16 ) ) ;
#120 = PERSON_AND_ORGANIZATION_ROLE ( 'design_supplier' ) ;
#121 = DIRECTION ( 'NONE',  ( 3.697785493223492838E-31, 1.000000000000000000, 1.387778780781445676E-16 ) ) ;
#122 = FACE_OUTER_BOUND ( 'NONE', #158, .T. ) ;
#123 = FACE_OUTER_BOUND ( 'NONE', #106, .T. ) ;
#124 = ORGANIZATION ( 'UNSPECIFIED', 'UNSPECIFIED', '' ) ;
#125 = PRODUCT_DEFINITION_FORMATION_WITH_SPECIFIED_SOURCE ( 'ANY', '', #74, .NOT_KNOWN. ) ;
#126 = CARTESIAN_POINT ( 'NONE',  ( 1.396592535537253027E-14, 25.00000000000000000, 4.000000000000000000 ) ) ;
#127 = DATE_TIME_ROLE ( 'creation_date' ) ;
#128 = APPROVAL_ROLE ( '' ) ;
#129 = APPLICATION_CONTEXT ( 'configuration controlled 3d designs of mechanical parts and assemblies' ) ;
#130 = PERSON_AND_ORGANIZATION_ROLE ( 'creator' ) ;
#131 = ORIENTED_EDGE ( 'NONE', *, *, #164, .T. ) ;
#132 = COORDINATED_UNIVERSAL_TIME_OFFSET ( 1, 0, .AHEAD. ) ;
#133 = DIRECTION ( 'NONE',  ( 4.275831445896958607E-31, 1.000000000000000000, 1.224646799147353207E-16 ) ) ;
#134 = ORIENTED_EDGE ( 'NONE', *, *, #4, .T. ) ;
#135 = CARTESIAN_POINT ( 'NONE',  ( 1.396592535537253027E-14, 6.499999999999999112, 3.999999999999999112 ) ) ;
#136 = CC_DESIGN_DATE_AND_TIME_ASSIGNMENT ( #86, #52, ( #150 ) ) ;
#137 = DIRECTION ( 'NONE',  ( -3.491481338843133355E-15, 1.224646799147353207E-16, -1.000000000000000000 ) ) ;
#138 = PERSON_AND_ORGANIZATION ( #159, #124 ) ;
#139 = DATE_AND_TIME ( #76, #97 ) ;
#140 = AXIS2_PLACEMENT_3D ( 'NONE', #78, #92, #133 ) ;
#141 = APPROVAL_DATE_TIME ( #152, #57 ) ;
#142 = CC_DESIGN_PERSON_AND_ORGANIZATION_ASSIGNMENT ( #72, #99, ( #74 ) ) ;
#143 = CARTESIAN_POINT ( 'NONE',  ( 1.396592535537252080E-14, -4.898587196589408884E-16, 3.999999999999996447 ) ) ;
#144 = FACE_BOUND ( 'NONE', #43, .T. ) ;
#145 = CC_DESIGN_PERSON_AND_ORGANIZATION_ASSIGNMENT ( #25, #130, ( #83 ) ) ;
#146 = ORIENTED_EDGE ( 'NONE', *, *, #67, .F. ) ;
#147 = PLANE ( 'NONE',  #22 ) ;
#148 = DIRECTION ( 'NONE',  ( 4.275831445896958607E-31, 1.000000000000000000, 1.224646799147353207E-16 ) ) ;
#149 = CC_DESIGN_DATE_AND_TIME_ASSIGNMENT ( #48, #127, ( #83 ) ) ;
#150 = SECURITY_CLASSIFICATION ( '', '', #167 ) ;
#151 = DIRECTION ( 'NONE',  ( 0.0000000000000000000, 0.0000000000000000000, 1.000000000000000000 ) ) ;
#152 = DATE_AND_TIME ( #154, #81 ) ;
#153 = AXIS2_PLACEMENT_3D ( 'NONE', #62, #151, #114 ) ;
#154 = CALENDAR_DATE ( 2021, 6, 12 ) ;
#155 = ADVANCED_FACE ( 'NONE', ( #123, #162 ), #46, .T. ) ;
#156 = UNCERTAINTY_MEASURE_WITH_UNIT (LENGTH_MEASURE( 1.000000000000000082E-05 ), #112, 'distance_accuracy_value', 'NONE');
#157 = DIRECTION ( 'NONE',  ( -3.491481338843133355E-15, 1.224646799147353207E-16, -1.000000000000000000 ) ) ;
#158 = EDGE_LOOP ( 'NONE', ( #160 ) ) ;
#159 = PERSON ( 'UNSPECIFIED', 'UNSPECIFIED', 'UNSPECIFIED', ('UNSPECIFIED'), ('UNSPECIFIED'), ('UNSPECIFIED') ) ;
#160 = ORIENTED_EDGE ( 'NONE', *, *, #95, .F. ) ;
#161 = CLOSED_SHELL ( 'NONE', ( #26, #155, #100, #94 ) ) ;
#162 = FACE_OUTER_BOUND ( 'NONE', #80, .T. ) ;
#163 = CC_DESIGN_PERSON_AND_ORGANIZATION_ASSIGNMENT ( #50, #49, ( #125 ) ) ;
#164 = EDGE_CURVE ( 'NONE', #59, #59, #111, .T. ) ;
#165 = CC_DESIGN_APPROVAL ( #12, ( #150 ) ) ;
#166 = PERSON_AND_ORGANIZATION ( #159, #124 ) ;
#167 = SECURITY_CLASSIFICATION_LEVEL ( 'unclassified' ) ;
#168 = CIRCLE ( 'NONE', #108, 6.500000000000000000 ) ;
#169 = APPROVAL_DATE_TIME ( #139, #12 ) ;
ENDSEC;
END-ISO-10303-21;
