ISO-10303-21;
HEADER;
FILE_DESCRIPTION (( 'STEP AP203' ),
    '1' );
FILE_NAME ('66683.step',
    '2021-11-30T09:57:10',
    ( '' ),
    ( '' ),
    'SwSTEP 2.0',
    'SolidWorks 2019',
    '' );
FILE_SCHEMA (( 'CONFIG_CONTROL_DESIGN' ));
ENDSEC;

DATA;
#1 = CARTESIAN_POINT ( 'NONE',  ( -4.712993932381003713E-31, 1.653095741764355612E-32, -1.349855111625086401E-16 ) ) ;
#2 = CIRCLE ( 'NONE', #83, 1.200000000000001510 ) ;
#3 = CARTESIAN_POINT ( 'NONE',  ( 3.491481338843133355E-14, 1.097449220962812818E-32, 10.00000000000000000 ) ) ;
#4 = APPROVAL ( #90, 'UNSPECIFIED' ) ;
#5 = FACE_BOUND ( 'NONE', #44, .T. ) ;
#6 = DIRECTION ( 'NONE',  ( -3.491481338843133355E-15, 1.224646799147353454E-16, -1.000000000000000000 ) ) ;
#7 = AXIS2_PLACEMENT_3D ( 'NONE', #1, #47, #196 ) ;
#8 = DIRECTION ( 'NONE',  ( 0.0000000000000000000, 1.000000000000000000, 0.0000000000000000000 ) ) ;
#9 = DIRECTION ( 'NONE',  ( 3.491481338843133355E-15, -1.224646799147353454E-16, 1.000000000000000000 ) ) ;
#10 = VERTEX_POINT ( 'NONE', #223 ) ;
#11 = CARTESIAN_POINT ( 'NONE',  ( 8.728703347107833388E-16, 1.463499999999998691, 0.2500000000000000000 ) ) ;
#12 = PRODUCT ( '66683', '66683', '', ( #175 ) ) ;
#13 = ADVANCED_FACE ( 'NONE', ( #303 ), #45, .T. ) ;
#14 = CIRCLE ( 'NONE', #191, 1.319162432702594367 ) ;
#15 = CARTESIAN_POINT ( 'NONE',  ( 9.284825720332949933E-14, 1.499999999999992673, 26.59279778195630328 ) ) ;
#16 = COORDINATED_UNIVERSAL_TIME_OFFSET ( 1, 0, .AHEAD. ) ;
#17 = DATE_TIME_ROLE ( 'creation_date' ) ;
#18 = ORIENTED_EDGE ( 'NONE', *, *, #198, .F. ) ;
#19 = APPROVAL_ROLE ( '' ) ;
#20 = PRODUCT_DEFINITION_FORMATION_WITH_SPECIFIED_SOURCE ( 'ANY', '', #12, .NOT_KNOWN. ) ;
#21 = EDGE_LOOP ( 'NONE', ( #165 ) ) ;
#22 = ADVANCED_FACE ( 'NONE', ( #208, #141 ), #271, .F. ) ;
#23 = APPROVAL_DATE_TIME ( #135, #102 ) ;
#24 = DIRECTION ( 'NONE',  ( 0.0000000000000000000, 1.000000000000000000, 0.0000000000000000000 ) ) ;
#25 = DIRECTION ( 'NONE',  ( -3.491481338843133355E-15, 1.224646799147353454E-16, -1.000000000000000000 ) ) ;
#26 = AXIS2_PLACEMENT_3D ( 'NONE', #121, #9, #99 ) ;
#27 = CARTESIAN_POINT ( 'NONE',  ( 3.491481338843133355E-14, -1.224646799147353454E-15, 10.00000000000000000 ) ) ;
#28 = CARTESIAN_POINT ( 'NONE',  ( 8.728703347107833388E-14, -3.061616997868383831E-15, 25.00000000000000000 ) ) ;
#29 = CC_DESIGN_APPROVAL ( #4, ( #20 ) ) ;
#30 = PRODUCT_RELATED_PRODUCT_CATEGORY ( 'detail', '', ( #12 ) ) ;
#31 = CARTESIAN_POINT ( 'NONE',  ( 8.849961221477469775E-14, -3.104148534859897544E-15, 25.34729635533384595 ) ) ;
#32 = CYLINDRICAL_SURFACE ( 'NONE', #292, 1.463499999999999357 ) ;
#33 = DIRECTION ( 'NONE',  ( 0.0000000000000000000, 0.0000000000000000000, 1.000000000000000000 ) ) ;
#34 = VERTEX_POINT ( 'NONE', #296 ) ;
#35 = DIRECTION ( 'NONE',  ( 4.275831445896960358E-31, 1.000000000000000000, 1.224646799147353454E-16 ) ) ;
#36 = CARTESIAN_POINT ( 'NONE',  ( 3.491481338843133355E-14, 1.463499999999998691, 10.00000000000000000 ) ) ;
#37 = COORDINATED_UNIVERSAL_TIME_OFFSET ( 1, 0, .AHEAD. ) ;
#38 = EDGE_LOOP ( 'NONE', ( #18 ) ) ;
#39 = ORIENTED_EDGE ( 'NONE', *, *, #198, .T. ) ;
#40 = PRODUCT_DEFINITION_SHAPE ( 'NONE', 'NONE',  #79 ) ;
#41 = APPROVAL_STATUS ( 'not_yet_approved' ) ;
#42 = EDGE_LOOP ( 'NONE', ( #116 ) ) ;
#43 = AXIS2_PLACEMENT_3D ( 'NONE', #27, #285, #8 ) ;
#44 = EDGE_LOOP ( 'NONE', ( #113 ) ) ;
#45 = PLANE ( 'NONE',  #89 ) ;
#46 = EDGE_CURVE ( 'NONE', #247, #247, #197, .T. ) ;
#47 = DIRECTION ( 'NONE',  ( 3.491481338843133355E-15, -1.224646799147353454E-16, 1.000000000000000000 ) ) ;
#48 = DIRECTION ( 'NONE',  ( 3.947926090305235762E-31, 1.000000000000000000, 1.111242404324057432E-16 ) ) ;
#49 = APPROVAL_PERSON_ORGANIZATION ( #248, #52, #19 ) ;
#50 = CYLINDRICAL_SURFACE ( 'NONE', #268, 1.249999999999998890 ) ;
#51 = FACE_OUTER_BOUND ( 'NONE', #278, .T. ) ;
#52 = APPROVAL ( #41, 'UNSPECIFIED' ) ;
#53 = CARTESIAN_POINT ( 'NONE',  ( 2.129803616694311221E-13, -7.470345474798856659E-15, 61.00000000000000000 ) ) ;
#54 = AXIS2_PLACEMENT_3D ( 'NONE', #75, #25, #48 ) ;
#55 = APPROVAL_PERSON_ORGANIZATION ( #163, #102, #110 ) ;
#56 = DIRECTION ( 'NONE',  ( 4.275831445896959482E-31, 1.000000000000000000, 1.224646799147353454E-16 ) ) ;
#57 = ADVANCED_FACE ( 'NONE', ( #284 ), #117, .F. ) ;
#58 = FACE_OUTER_BOUND ( 'NONE', #72, .T. ) ;
#59 = CARTESIAN_POINT ( 'NONE',  ( 0.0000000000000000000, 0.0000000000000000000, 0.0000000000000000000 ) ) ;
#60 = CIRCLE ( 'NONE', #100, 1.499999999999996003 ) ;
#61 = PERSON_AND_ORGANIZATION_ROLE ( 'design_owner' ) ;
#62 = DIRECTION ( 'NONE',  ( -3.491481338843133355E-15, 1.224646799147353454E-16, -1.000000000000000000 ) ) ;
#63 = ADVANCED_BREP_SHAPE_REPRESENTATION ( '66683', ( #258, #150, #277 ), #216 ) ;
#64 = UNCERTAINTY_MEASURE_WITH_UNIT (LENGTH_MEASURE( 1.000000000000000082E-05 ), #177, 'distance_accuracy_value', 'NONE');
#65 = PERSON_AND_ORGANIZATION ( #246, #105 ) ;
#66 = CONICAL_SURFACE ( 'NONE', #26, 1.463499999999998691, 0.5235987755982924874 ) ;
#67 = DATE_TIME_ROLE ( 'classification_date' ) ;
#68 = EDGE_LOOP ( 'NONE', ( #94 ) ) ;
#69 = EDGE_CURVE ( 'NONE', #220, #220, #276, .T. ) ;
#70 = APPROVAL_DATE_TIME ( #160, #52 ) ;
#71 = DIRECTION ( 'NONE',  ( -3.491481338843133355E-15, 1.224646799147353454E-16, -1.000000000000000000 ) ) ;
#72 = EDGE_LOOP ( 'NONE', ( #301 ) ) ;
#73 = DIRECTION ( 'NONE',  ( 3.491481338843133355E-15, -1.224646799147353454E-16, 1.000000000000000000 ) ) ;
#74 = ADVANCED_FACE ( 'NONE', ( #51 ), #145, .F. ) ;
#75 = CARTESIAN_POINT ( 'NONE',  ( 8.728703347107827472E-16, -3.061616997868381785E-17, 0.2499999999999998335 ) ) ;
#76 = CARTESIAN_POINT ( 'NONE',  ( 9.284825720332949933E-14, -3.256678468404562521E-15, 26.59279778195630328 ) ) ;
#77 = DIRECTION ( 'NONE',  ( 4.275831445896959482E-31, 1.000000000000000000, 1.224646799147353454E-16 ) ) ;
#78 = AXIS2_PLACEMENT_3D ( 'NONE', #28, #6, #213 ) ;
#79 = PRODUCT_DEFINITION ( 'UNKNOWN', '', #20, #229 ) ;
#80 = FACE_OUTER_BOUND ( 'NONE', #210, .T. ) ;
#81 = FACE_BOUND ( 'NONE', #188, .T. ) ;
#82 = CARTESIAN_POINT ( 'NONE',  ( 8.849961221477469775E-14, 1.280384493975577298, 25.34729635533384595 ) ) ;
#83 = AXIS2_PLACEMENT_3D ( 'NONE', #190, #261, #118 ) ;
#84 = FACE_OUTER_BOUND ( 'NONE', #38, .T. ) ;
#85 = CARTESIAN_POINT ( 'NONE',  ( 0.0000000000000000000, 0.0000000000000000000, 0.0000000000000000000 ) ) ;
#86 = EDGE_CURVE ( 'NONE', #270, #270, #241, .T. ) ;
#87 = VERTEX_POINT ( 'NONE', #36 ) ;
#88 = EDGE_LOOP ( 'NONE', ( #39 ) ) ;
#89 = AXIS2_PLACEMENT_3D ( 'NONE', #260, #73, #139 ) ;
#90 = APPROVAL_STATUS ( 'not_yet_approved' ) ;
#91 = ORIENTED_EDGE ( 'NONE', *, *, #106, .F. ) ;
#92 = ORIENTED_EDGE ( 'NONE', *, *, #106, .T. ) ;
#93 = PERSON_AND_ORGANIZATION ( #246, #105 ) ;
#94 = ORIENTED_EDGE ( 'NONE', *, *, #46, .F. ) ;
#95 = LOCAL_TIME ( 10, 57, 10.00000000000000000, #37 ) ;
#96 = DIRECTION ( 'NONE',  ( -3.491481338843133355E-15, 1.224646799147353454E-16, -1.000000000000000000 ) ) ;
#97 = CARTESIAN_POINT ( 'NONE',  ( 3.620593821442183232E-14, -1.269933361840907991E-15, 10.36979284741596352 ) ) ;
#98 = DIRECTION ( 'NONE',  ( -3.491481338843133355E-15, 1.224646799147353454E-16, -1.000000000000000000 ) ) ;
#99 = DIRECTION ( 'NONE',  ( -3.947926090305235762E-31, -1.000000000000000000, -1.111242404324057432E-16 ) ) ;
#100 = AXIS2_PLACEMENT_3D ( 'NONE', #76, #242, #215 ) ;
#101 = DIRECTION ( 'NONE',  ( -3.491481338843133355E-15, 1.224646799147353454E-16, -1.000000000000000000 ) ) ;
#102 = APPROVAL ( #280, 'UNSPECIFIED' ) ;
#103 = CARTESIAN_POINT ( 'NONE',  ( 9.284825720332949933E-14, -3.256678468404562521E-15, 26.59279778195630328 ) ) ;
#104 = VERTEX_POINT ( 'NONE', #11 ) ;
#105 = ORGANIZATION ( 'UNSPECIFIED', 'UNSPECIFIED', '' ) ;
#106 = EDGE_CURVE ( 'NONE', #107, #107, #60, .T. ) ;
#107 = VERTEX_POINT ( 'NONE', #15 ) ;
#108 = AXIS2_PLACEMENT_3D ( 'NONE', #3, #240, #147 ) ;
#109 = CC_DESIGN_APPROVAL ( #102, ( #201 ) ) ;
#110 = APPROVAL_ROLE ( '' ) ;
#111 = ADVANCED_FACE ( 'NONE', ( #81, #238 ), #66, .T. ) ;
#112 = EDGE_LOOP ( 'NONE', ( #179 ) ) ;
#113 = ORIENTED_EDGE ( 'NONE', *, *, #86, .T. ) ;
#114 = COORDINATED_UNIVERSAL_TIME_OFFSET ( 1, 0, .AHEAD. ) ;
#115 = ORIENTED_EDGE ( 'NONE', *, *, #164, .T. ) ;
#116 = ORIENTED_EDGE ( 'NONE', *, *, #69, .F. ) ;
#117 = PLANE ( 'NONE',  #7 ) ;
#118 = DIRECTION ( 'NONE',  ( 0.0000000000000000000, 1.000000000000000000, 0.0000000000000000000 ) ) ;
#119 = FACE_OUTER_BOUND ( 'NONE', #161, .T. ) ;
#120 = FACE_OUTER_BOUND ( 'NONE', #159, .T. ) ;
#121 = CARTESIAN_POINT ( 'NONE',  ( 8.728703347107827472E-16, -3.061616997868381785E-17, 0.2499999999999998335 ) ) ;
#122 = CONICAL_SURFACE ( 'NONE', #174, 1.499999999999996003, 0.1745329251994268971 ) ;
#123 = EDGE_CURVE ( 'NONE', #34, #34, #14, .T. ) ;
#124 = DIRECTION ( 'NONE',  ( -3.491481338843133355E-15, 1.224646799147353454E-16, -1.000000000000000000 ) ) ;
#125 = DIRECTION ( 'NONE',  ( -3.491481338843133355E-15, 1.224646799147353454E-16, -1.000000000000000000 ) ) ;
#126 = PLANE ( 'NONE',  #225 ) ;
#127 = AXIS2_PLACEMENT_3D ( 'NONE', #31, #265, #214 ) ;
#128 = CARTESIAN_POINT ( 'NONE',  ( 2.129803616694311221E-13, 8.998558695971049855E-33, 61.00000000000000000 ) ) ;
#129 = ADVANCED_FACE ( 'NONE', ( #142, #189 ), #122, .T. ) ;
#130 = FACE_OUTER_BOUND ( 'NONE', #257, .T. ) ;
#131 = CIRCLE ( 'NONE', #43, 1.463500000000000023 ) ;
#132 = CALENDAR_DATE ( 2021, 30, 11 ) ;
#133 = ORIENTED_EDGE ( 'NONE', *, *, #123, .F. ) ;
#134 = ORIENTED_EDGE ( 'NONE', *, *, #46, .T. ) ;
#135 = DATE_AND_TIME ( #203, #226 ) ;
#136 = CLOSED_SHELL ( 'NONE', ( #74, #194, #249, #22, #129, #274, #224, #282 ) ) ;
#137 = CC_DESIGN_SECURITY_CLASSIFICATION ( #201, ( #20 ) ) ;
#138 = CALENDAR_DATE ( 2021, 30, 11 ) ;
#139 = DIRECTION ( 'NONE',  ( -4.275831445896959482E-31, -1.000000000000000000, -1.224646799147353454E-16 ) ) ;
#140 = CC_DESIGN_PERSON_AND_ORGANIZATION_ASSIGNMENT ( #93, #251, ( #79 ) ) ;
#141 = FACE_OUTER_BOUND ( 'NONE', #281, .T. ) ;
#142 = FACE_BOUND ( 'NONE', #279, .T. ) ;
#143 = AXIS2_PLACEMENT_3D ( 'NONE', #53, #287, #169 ) ;
#144 = CC_DESIGN_PERSON_AND_ORGANIZATION_ASSIGNMENT ( #232, #207, ( #201 ) ) ;
#145 = PLANE ( 'NONE',  #108 ) ;
#146 = CARTESIAN_POINT ( 'NONE',  ( 0.0000000000000000000, 0.0000000000000000000, 0.0000000000000000000 ) ) ;
#147 = DIRECTION ( 'NONE',  ( -4.275831445896959482E-31, -1.000000000000000000, -1.224646799147353454E-16 ) ) ;
#148 = FACE_OUTER_BOUND ( 'NONE', #253, .T. ) ;
#149 = DIRECTION ( 'NONE',  ( -3.491481338843133355E-15, 1.224646799147353454E-16, -1.000000000000000000 ) ) ;
#150 = MANIFOLD_SOLID_BREP ( 'Corps-Déplacer/Copier1[2]', #234 ) ;
#151 = CC_DESIGN_DATE_AND_TIME_ASSIGNMENT ( #181, #67, ( #201 ) ) ;
#152 = DIRECTION ( 'NONE',  ( 4.275831445896959482E-31, 1.000000000000000000, 1.224646799147353454E-16 ) ) ;
#153 = LOCAL_TIME ( 10, 57, 10.00000000000000000, #254 ) ;
#154 = APPLICATION_PROTOCOL_DEFINITION ( 'international standard', 'config_control_design', 1994, #162 ) ;
#155 = CARTESIAN_POINT ( 'NONE',  ( 3.620593821442183232E-14, 1.249999999999996891, 10.36979284741596352 ) ) ;
#156 = EDGE_CURVE ( 'NONE', #87, #87, #131, .T. ) ;
#157 = SECURITY_CLASSIFICATION_LEVEL ( 'unclassified' ) ;
#158 = AXIS2_PLACEMENT_3D ( 'NONE', #236, #96, #24 ) ;
#159 = EDGE_LOOP ( 'NONE', ( #91 ) ) ;
#160 = DATE_AND_TIME ( #230, #153 ) ;
#161 = EDGE_LOOP ( 'NONE', ( #297 ) ) ;
#162 = APPLICATION_CONTEXT ( 'configuration controlled 3d designs of mechanical parts and assemblies' ) ;
#163 = PERSON_AND_ORGANIZATION ( #246, #105 ) ;
#164 = EDGE_CURVE ( 'NONE', #243, #243, #252, .T. ) ;
#165 = ORIENTED_EDGE ( 'NONE', *, *, #123, .T. ) ;
#166 = AXIS2_PLACEMENT_3D ( 'NONE', #299, #71, #255 ) ;
#167 = ORIENTED_EDGE ( 'NONE', *, *, #182, .T. ) ;
#168 = FACE_BOUND ( 'NONE', #88, .T. ) ;
#169 = DIRECTION ( 'NONE',  ( 0.0000000000000000000, 1.000000000000000000, 0.0000000000000000000 ) ) ;
#170 = CC_DESIGN_APPROVAL ( #52, ( #79 ) ) ;
#171 = DIRECTION ( 'NONE',  ( 0.0000000000000000000, -1.000000000000000000, 0.0000000000000000000 ) ) ;
#172 = CYLINDRICAL_SURFACE ( 'NONE', #298, 1.499999999999998668 ) ;
#173 = CARTESIAN_POINT ( 'NONE',  ( 3.491481338843133355E-14, -1.224646799147353454E-15, 10.00000000000000000 ) ) ;
#174 = AXIS2_PLACEMENT_3D ( 'NONE', #103, #262, #171 ) ;
#175 = MECHANICAL_CONTEXT ( 'NONE', #192, 'mechanical' ) ;
#176 = CONICAL_SURFACE ( 'NONE', #143, 1.200000000000001510, 0.7853981633974453924 ) ;
#177 =( LENGTH_UNIT ( ) NAMED_UNIT ( * ) SI_UNIT ( .MILLI., .METRE. ) );
#178 = APPROVAL_ROLE ( '' ) ;
#179 = ORIENTED_EDGE ( 'NONE', *, *, #156, .F. ) ;
#180 = AXIS2_PLACEMENT_3D ( 'NONE', #97, #98, #290 ) ;
#181 = DATE_AND_TIME ( #138, #95 ) ;
#182 = EDGE_CURVE ( 'NONE', #222, #222, #288, .T. ) ;
#183 = PERSON_AND_ORGANIZATION ( #246, #105 ) ;
#184 = ORIENTED_EDGE ( 'NONE', *, *, #156, .T. ) ;
#185 = DATE_AND_TIME ( #132, #206 ) ;
#186 = EDGE_LOOP ( 'NONE', ( #212 ) ) ;
#187 = CONICAL_SURFACE ( 'NONE', #221, 1.249999999999998224, 0.5235987755982934866 ) ;
#188 = EDGE_LOOP ( 'NONE', ( #133 ) ) ;
#189 = FACE_OUTER_BOUND ( 'NONE', #283, .T. ) ;
#190 = CARTESIAN_POINT ( 'NONE',  ( 2.129803616694311221E-13, -7.470345474798856659E-15, 61.00000000000000000 ) ) ;
#191 = AXIS2_PLACEMENT_3D ( 'NONE', #217, #237, #77 ) ;
#192 = APPLICATION_CONTEXT ( 'configuration controlled 3d designs of mechanical parts and assemblies' ) ;
#193 = FACE_OUTER_BOUND ( 'NONE', #68, .T. ) ;
#194 = ADVANCED_FACE ( 'NONE', ( #264, #5 ), #187, .T. ) ;
#195 = CARTESIAN_POINT ( 'NONE',  ( 3.620593821442183232E-14, -1.269933361840907991E-15, 10.36979284741596352 ) ) ;
#196 = DIRECTION ( 'NONE',  ( -4.275831445896959482E-31, -1.000000000000000000, -1.224646799147353454E-16 ) ) ;
#197 = CIRCLE ( 'NONE', #158, 1.500000000000001332 ) ;
#198 = EDGE_CURVE ( 'NONE', #10, #10, #2, .T. ) ;
#199 =( NAMED_UNIT ( * ) PLANE_ANGLE_UNIT ( ) SI_UNIT ( $, .RADIAN. ) );
#200 = DIRECTION ( 'NONE',  ( 1.000000000000000000, 0.0000000000000000000, 0.0000000000000000000 ) ) ;
#201 = SECURITY_CLASSIFICATION ( '', '', #157 ) ;
#202 = PERSON_AND_ORGANIZATION_ROLE ( 'design_supplier' ) ;
#203 = CALENDAR_DATE ( 2021, 30, 11 ) ;
#204 = CALENDAR_DATE ( 2021, 30, 11 ) ;
#205 = ORIENTED_EDGE ( 'NONE', *, *, #182, .F. ) ;
#206 = LOCAL_TIME ( 10, 57, 10.00000000000000000, #114 ) ;
#207 = PERSON_AND_ORGANIZATION_ROLE ( 'classification_officer' ) ;
#208 = FACE_OUTER_BOUND ( 'NONE', #42, .T. ) ;
#209 = COORDINATED_UNIVERSAL_TIME_OFFSET ( 1, 0, .AHEAD. ) ;
#210 = EDGE_LOOP ( 'NONE', ( #134 ) ) ;
#211 = CC_DESIGN_DATE_AND_TIME_ASSIGNMENT ( #185, #17, ( #79 ) ) ;
#212 = ORIENTED_EDGE ( 'NONE', *, *, #164, .F. ) ;
#213 = DIRECTION ( 'NONE',  ( 0.0000000000000000000, 1.000000000000000000, 0.0000000000000000000 ) ) ;
#214 = DIRECTION ( 'NONE',  ( 0.0000000000000000000, 1.000000000000000000, 0.0000000000000000000 ) ) ;
#215 = DIRECTION ( 'NONE',  ( 0.0000000000000000000, 1.000000000000000000, 0.0000000000000000000 ) ) ;
#216 =( GEOMETRIC_REPRESENTATION_CONTEXT ( 3 ) GLOBAL_UNCERTAINTY_ASSIGNED_CONTEXT ( ( #64 ) ) GLOBAL_UNIT_ASSIGNED_CONTEXT ( ( #177, #199, #294 ) ) REPRESENTATION_CONTEXT ( 'NONE', 'WORKASPACE' ) );
#217 = CARTESIAN_POINT ( 'NONE',  ( -9.425987864762007426E-31, 3.306191483528711224E-32, -2.699710223250172801E-16 ) ) ;
#218 = DIRECTION ( 'NONE',  ( -3.491481338843133355E-15, 1.224646799147353454E-16, -1.000000000000000000 ) ) ;
#219 = CC_DESIGN_PERSON_AND_ORGANIZATION_ASSIGNMENT ( #227, #275, ( #20 ) ) ;
#220 = VERTEX_POINT ( 'NONE', #250 ) ;
#221 = AXIS2_PLACEMENT_3D ( 'NONE', #195, #124, #266 ) ;
#222 = VERTEX_POINT ( 'NONE', #82 ) ;
#223 = CARTESIAN_POINT ( 'NONE',  ( 2.129803616694311221E-13, 1.199999999999993960, 61.00000000000000000 ) ) ;
#224 = ADVANCED_FACE ( 'NONE', ( #193, #168 ), #176, .T. ) ;
#225 = AXIS2_PLACEMENT_3D ( 'NONE', #128, #149, #152 ) ;
#226 = LOCAL_TIME ( 10, 57, 10.00000000000000000, #16 ) ;
#227 = PERSON_AND_ORGANIZATION ( #246, #105 ) ;
#228 = EDGE_LOOP ( 'NONE', ( #233 ) ) ;
#229 = DESIGN_CONTEXT ( 'detailed design', #162, 'design' ) ;
#230 = CALENDAR_DATE ( 2021, 30, 11 ) ;
#231 = ORIENTED_EDGE ( 'NONE', *, *, #86, .F. ) ;
#232 = PERSON_AND_ORGANIZATION ( #246, #105 ) ;
#233 = ORIENTED_EDGE ( 'NONE', *, *, #235, .T. ) ;
#234 = CLOSED_SHELL ( 'NONE', ( #57, #111, #302, #13 ) ) ;
#235 = EDGE_CURVE ( 'NONE', #104, #104, #245, .T. ) ;
#236 = CARTESIAN_POINT ( 'NONE',  ( 2.119329172677781757E-13, -7.433606070824434221E-15, 60.69999999999999574 ) ) ;
#237 = DIRECTION ( 'NONE',  ( -3.491481338843133355E-15, 1.224646799147353454E-16, -1.000000000000000000 ) ) ;
#238 = FACE_OUTER_BOUND ( 'NONE', #228, .T. ) ;
#239 = DIRECTION ( 'NONE',  ( 4.275831445896960358E-31, 1.000000000000000000, 1.224646799147353454E-16 ) ) ;
#240 = DIRECTION ( 'NONE',  ( 3.491481338843133355E-15, -1.224646799147353454E-16, 1.000000000000000000 ) ) ;
#241 = CIRCLE ( 'NONE', #180, 1.249999999999998224 ) ;
#242 = DIRECTION ( 'NONE',  ( -3.491481338843133355E-15, 1.224646799147353454E-16, -1.000000000000000000 ) ) ;
#243 = VERTEX_POINT ( 'NONE', #291 ) ;
#244 = CARTESIAN_POINT ( 'NONE',  ( 0.0000000000000000000, 0.0000000000000000000, 0.0000000000000000000 ) ) ;
#245 = CIRCLE ( 'NONE', #54, 1.463499999999998691 ) ;
#246 = PERSON ( 'UNSPECIFIED', 'UNSPECIFIED', 'UNSPECIFIED', ('UNSPECIFIED'), ('UNSPECIFIED'), ('UNSPECIFIED') ) ;
#247 = VERTEX_POINT ( 'NONE', #293 ) ;
#248 = PERSON_AND_ORGANIZATION ( #246, #105 ) ;
#249 = ADVANCED_FACE ( 'NONE', ( #148, #119 ), #50, .T. ) ;
#250 = CARTESIAN_POINT ( 'NONE',  ( 8.728703347107833388E-14, 1.249999999999996669, 25.00000000000000000 ) ) ;
#251 = PERSON_AND_ORGANIZATION_ROLE ( 'creator' ) ;
#252 = CIRCLE ( 'NONE', #263, 1.463500000000000023 ) ;
#253 = EDGE_LOOP ( 'NONE', ( #231 ) ) ;
#254 = COORDINATED_UNIVERSAL_TIME_OFFSET ( 1, 0, .AHEAD. ) ;
#255 = DIRECTION ( 'NONE',  ( 4.275831445896959482E-31, 1.000000000000000000, 1.224646799147353454E-16 ) ) ;
#256 = DATE_AND_TIME ( #204, #295 ) ;
#257 = EDGE_LOOP ( 'NONE', ( #115 ) ) ;
#258 = MANIFOLD_SOLID_BREP ( 'Corps-Déplacer/Copier1[1]', #136 ) ;
#259 = APPROVAL_PERSON_ORGANIZATION ( #183, #4, #178 ) ;
#260 = CARTESIAN_POINT ( 'NONE',  ( 3.491481338843133355E-14, 1.097449220962812818E-32, 10.00000000000000000 ) ) ;
#261 = DIRECTION ( 'NONE',  ( -3.491481338843133355E-15, 1.224646799147353454E-16, -1.000000000000000000 ) ) ;
#262 = DIRECTION ( 'NONE',  ( 3.491481338843133355E-15, -1.224646799147353454E-16, 1.000000000000000000 ) ) ;
#263 = AXIS2_PLACEMENT_3D ( 'NONE', #173, #101, #289 ) ;
#264 = FACE_OUTER_BOUND ( 'NONE', #112, .T. ) ;
#265 = DIRECTION ( 'NONE',  ( -3.491481338843133355E-15, 1.224646799147353454E-16, -1.000000000000000000 ) ) ;
#266 = DIRECTION ( 'NONE',  ( 0.0000000000000000000, 1.000000000000000000, 0.0000000000000000000 ) ) ;
#267 = CC_DESIGN_PERSON_AND_ORGANIZATION_ASSIGNMENT ( #272, #61, ( #12 ) ) ;
#268 = AXIS2_PLACEMENT_3D ( 'NONE', #146, #218, #239 ) ;
#269 = APPLICATION_PROTOCOL_DEFINITION ( 'international standard', 'config_control_design', 1994, #192 ) ;
#270 = VERTEX_POINT ( 'NONE', #155 ) ;
#271 = TOROIDAL_SURFACE ( 'NONE', #166, 3.250000000000000000, 2.000000000000000000 ) ;
#272 = PERSON_AND_ORGANIZATION ( #246, #105 ) ;
#273 = APPROVAL_DATE_TIME ( #256, #4 ) ;
#274 = ADVANCED_FACE ( 'NONE', ( #120, #80 ), #172, .T. ) ;
#275 = PERSON_AND_ORGANIZATION_ROLE ( 'creator' ) ;
#276 = CIRCLE ( 'NONE', #78, 1.249999999999999778 ) ;
#277 = AXIS2_PLACEMENT_3D ( 'NONE', #244, #33, #200 ) ;
#278 = EDGE_LOOP ( 'NONE', ( #184 ) ) ;
#279 = EDGE_LOOP ( 'NONE', ( #205 ) ) ;
#280 = APPROVAL_STATUS ( 'not_yet_approved' ) ;
#281 = EDGE_LOOP ( 'NONE', ( #167 ) ) ;
#282 = ADVANCED_FACE ( 'NONE', ( #84 ), #126, .F. ) ;
#283 = EDGE_LOOP ( 'NONE', ( #92 ) ) ;
#284 = FACE_OUTER_BOUND ( 'NONE', #21, .T. ) ;
#285 = DIRECTION ( 'NONE',  ( -3.491481338843133355E-15, 1.224646799147353454E-16, -1.000000000000000000 ) ) ;
#286 = CC_DESIGN_PERSON_AND_ORGANIZATION_ASSIGNMENT ( #65, #202, ( #20 ) ) ;
#287 = DIRECTION ( 'NONE',  ( -3.491481338843133355E-15, 1.224646799147353454E-16, -1.000000000000000000 ) ) ;
#288 = CIRCLE ( 'NONE', #127, 1.280384493975580407 ) ;
#289 = DIRECTION ( 'NONE',  ( 0.0000000000000000000, 1.000000000000000000, 0.0000000000000000000 ) ) ;
#290 = DIRECTION ( 'NONE',  ( 0.0000000000000000000, 1.000000000000000000, 0.0000000000000000000 ) ) ;
#291 = CARTESIAN_POINT ( 'NONE',  ( 3.491481338843133355E-14, 1.463499999999998691, 10.00000000000000000 ) ) ;
#292 = AXIS2_PLACEMENT_3D ( 'NONE', #85, #125, #56 ) ;
#293 = CARTESIAN_POINT ( 'NONE',  ( 2.119329172677781757E-13, 1.499999999999994005, 60.69999999999999574 ) ) ;
#294 =( NAMED_UNIT ( * ) SI_UNIT ( $, .STERADIAN. ) SOLID_ANGLE_UNIT ( ) );
#295 = LOCAL_TIME ( 10, 57, 10.00000000000000000, #209 ) ;
#296 = CARTESIAN_POINT ( 'NONE',  ( -3.785471652766322713E-31, 1.319162432702594367, -1.084202172485504681E-16 ) ) ;
#297 = ORIENTED_EDGE ( 'NONE', *, *, #69, .T. ) ;
#298 = AXIS2_PLACEMENT_3D ( 'NONE', #59, #62, #35 ) ;
#299 = CARTESIAN_POINT ( 'NONE',  ( 8.728703347107833388E-14, -3.035766082959412415E-15, 25.00000000000000000 ) ) ;
#300 = SHAPE_DEFINITION_REPRESENTATION ( #40, #63 ) ;
#301 = ORIENTED_EDGE ( 'NONE', *, *, #235, .F. ) ;
#302 = ADVANCED_FACE ( 'NONE', ( #58, #130 ), #32, .T. ) ;
#303 = FACE_OUTER_BOUND ( 'NONE', #186, .T. ) ;
ENDSEC;
END-ISO-10303-21;
