ISO-10303-21;
HEADER;
FILE_DESCRIPTION (( 'STEP AP203' ),
    '1' );
FILE_NAME ('66359.step',
    '2021-11-30T08:32:44',
    ( '' ),
    ( '' ),
    'SwSTEP 2.0',
    'SolidWorks 2019',
    '' );
FILE_SCHEMA (( 'CONFIG_CONTROL_DESIGN' ));
ENDSEC;

DATA;
#1 = CARTESIAN_POINT ( 'NONE',  ( 1.735266225405037467E-13, 1.499999999999995559, 49.70000000000000284 ) ) ;
#2 = DIRECTION ( 'NONE',  ( -3.491481338843133355E-15, 1.224646799147353207E-16, -1.000000000000000000 ) ) ;
#3 = DIRECTION ( 'NONE',  ( 0.0000000000000000000, 1.000000000000000000, 0.0000000000000000000 ) ) ;
#4 = CONICAL_SURFACE ( 'NONE', #123, 0.8584999999999991527, 0.5235987755982920433 ) ;
#5 = CC_DESIGN_SECURITY_CLASSIFICATION ( #296, ( #93 ) ) ;
#6 = FACE_OUTER_BOUND ( 'NONE', #177, .T. ) ;
#7 = ADVANCED_BREP_SHAPE_REPRESENTATION ( '66359', ( #110, #212, #34 ), #147 ) ;
#8 = CIRCLE ( 'NONE', #175, 0.7550000000000004485 ) ;
#9 = CC_DESIGN_APPROVAL ( #47, ( #213 ) ) ;
#10 = DATE_TIME_ROLE ( 'classification_date' ) ;
#11 = CC_DESIGN_PERSON_AND_ORGANIZATION_ASSIGNMENT ( #250, #149, ( #213 ) ) ;
#12 = CLOSED_SHELL ( 'NONE', ( #293, #240, #191, #288 ) ) ;
#13 = DIRECTION ( 'NONE',  ( 3.491481338843133355E-15, -1.224646799147353207E-16, 1.000000000000000000 ) ) ;
#14 = FACE_OUTER_BOUND ( 'NONE', #53, .T. ) ;
#15 = ORIENTED_EDGE ( 'NONE', *, *, #20, .F. ) ;
#16 = CYLINDRICAL_SURFACE ( 'NONE', #277, 1.499999999999999112 ) ;
#17 = CARTESIAN_POINT ( 'NONE',  ( 8.728703347107835360E-16, 0.8584999999999991527, 0.2500000000000000555 ) ) ;
#18 = FACE_OUTER_BOUND ( 'NONE', #270, .T. ) ;
#19 = DIRECTION ( 'NONE',  ( -3.491481338843133355E-15, 1.224646799147353207E-16, -1.000000000000000000 ) ) ;
#20 = EDGE_CURVE ( 'NONE', #211, #211, #96, .T. ) ;
#21 = CARTESIAN_POINT ( 'NONE',  ( 5.935518276033326704E-14, -2.081899558550500280E-15, 17.00000000000000000 ) ) ;
#22 = VERTEX_POINT ( 'NONE', #83 ) ;
#23 = DIRECTION ( 'NONE',  ( 4.275831445896958607E-31, 1.000000000000000000, 1.224646799147353207E-16 ) ) ;
#24 = ORIENTED_EDGE ( 'NONE', *, *, #95, .F. ) ;
#25 = TOROIDAL_SURFACE ( 'NONE', #58, 2.754999999999999893, 2.000000000000000000 ) ;
#26 = CC_DESIGN_APPROVAL ( #226, ( #93 ) ) ;
#27 = VERTEX_POINT ( 'NONE', #17 ) ;
#28 = DIRECTION ( 'NONE',  ( 0.0000000000000000000, 1.000000000000000000, 0.0000000000000000000 ) ) ;
#29 = COORDINATED_UNIVERSAL_TIME_OFFSET ( 1, 0, .AHEAD. ) ;
#30 = ORIENTED_EDGE ( 'NONE', *, *, #41, .F. ) ;
#31 =( LENGTH_UNIT ( ) NAMED_UNIT ( * ) SI_UNIT ( .MILLI., .METRE. ) );
#32 = DIRECTION ( 'NONE',  ( -3.491481338843133355E-15, 1.224646799147353207E-16, -1.000000000000000000 ) ) ;
#33 = ADVANCED_FACE ( 'NONE', ( #152 ), #100, .F. ) ;
#34 = AXIS2_PLACEMENT_3D ( 'NONE', #108, #202, #126 ) ;
#35 = DATE_AND_TIME ( #55, #120 ) ;
#36 = CARTESIAN_POINT ( 'NONE',  ( 1.745740669421566678E-13, 8.998558695971067645E-33, 50.00000000000000000 ) ) ;
#37 = FACE_OUTER_BOUND ( 'NONE', #60, .T. ) ;
#38 = PERSON_AND_ORGANIZATION ( #243, #233 ) ;
#39 = DIRECTION ( 'NONE',  ( 4.275831445896958607E-31, 1.000000000000000000, 1.224646799147353207E-16 ) ) ;
#40 = CARTESIAN_POINT ( 'NONE',  ( 2.444036937190193349E-14, 6.437718867076010015E-33, 7.000000000000000000 ) ) ;
#41 = EDGE_CURVE ( 'NONE', #70, #70, #268, .T. ) ;
#42 = CARTESIAN_POINT ( 'NONE',  ( 1.745740669421566678E-13, -6.123233995736766085E-15, 50.00000000000000000 ) ) ;
#43 = EDGE_CURVE ( 'NONE', #197, #197, #8, .T. ) ;
#44 = CARTESIAN_POINT ( 'NONE',  ( -1.160902360844864617E-31, 4.071897347738175872E-33, -3.324956510377677446E-17 ) ) ;
#45 = CIRCLE ( 'NONE', #170, 1.500000000000001554 ) ;
#46 = LOCAL_TIME ( 9, 32, 44.00000000000000000, #67 ) ;
#47 = APPROVAL ( #300, 'UNSPECIFIED' ) ;
#48 = DIRECTION ( 'NONE',  ( -3.491481338843133355E-15, 1.224646799147353207E-16, -1.000000000000000000 ) ) ;
#49 = EDGE_CURVE ( 'NONE', #27, #27, #159, .T. ) ;
#50 = ORIENTED_EDGE ( 'NONE', *, *, #43, .T. ) ;
#51 = AXIS2_PLACEMENT_3D ( 'NONE', #180, #274, #219 ) ;
#52 = FACE_OUTER_BOUND ( 'NONE', #201, .T. ) ;
#53 = EDGE_LOOP ( 'NONE', ( #218 ) ) ;
#54 = EDGE_LOOP ( 'NONE', ( #133 ) ) ;
#55 = CALENDAR_DATE ( 2021, 30, 11 ) ;
#56 = ORIENTED_EDGE ( 'NONE', *, *, #49, .F. ) ;
#57 = CARTESIAN_POINT ( 'NONE',  ( 2.444036937190193349E-14, -8.572527594031473190E-16, 7.000000000000000000 ) ) ;
#58 = AXIS2_PLACEMENT_3D ( 'NONE', #158, #82, #210 ) ;
#59 = PERSON_AND_ORGANIZATION_ROLE ( 'creator' ) ;
#60 = EDGE_LOOP ( 'NONE', ( #122 ) ) ;
#61 = FACE_OUTER_BOUND ( 'NONE', #273, .T. ) ;
#62 = FACE_OUTER_BOUND ( 'NONE', #179, .T. ) ;
#63 = AXIS2_PLACEMENT_3D ( 'NONE', #261, #145, #23 ) ;
#64 = ADVANCED_FACE ( 'NONE', ( #18, #207 ), #25, .F. ) ;
#65 = DESIGN_CONTEXT ( 'detailed design', #199, 'design' ) ;
#66 = DIRECTION ( 'NONE',  ( 3.491481338843133355E-15, -1.224646799147353207E-16, 1.000000000000000000 ) ) ;
#67 = COORDINATED_UNIVERSAL_TIME_OFFSET ( 1, 0, .AHEAD. ) ;
#68 = EDGE_CURVE ( 'NONE', #255, #255, #114, .T. ) ;
#69 = PRODUCT ( '66359', '66359', '', ( #205 ) ) ;
#70 = VERTEX_POINT ( 'NONE', #264 ) ;
#71 = EDGE_CURVE ( 'NONE', #234, #234, #45, .T. ) ;
#72 = CALENDAR_DATE ( 2021, 30, 11 ) ;
#73 = DIRECTION ( 'NONE',  ( 4.275831445896958607E-31, 1.000000000000000000, 1.224646799147353454E-16 ) ) ;
#74 = DIRECTION ( 'NONE',  ( 4.275831445896958607E-31, 1.000000000000000000, 1.224646799147353207E-16 ) ) ;
#75 = PERSON_AND_ORGANIZATION ( #243, #233 ) ;
#76 = DIRECTION ( 'NONE',  ( -3.491481338843133355E-15, 1.224646799147353207E-16, -1.000000000000000000 ) ) ;
#77 = DIRECTION ( 'NONE',  ( 0.0000000000000000000, 1.000000000000000000, 0.0000000000000000000 ) ) ;
#78 = COORDINATED_UNIVERSAL_TIME_OFFSET ( 1, 0, .AHEAD. ) ;
#79 = EDGE_LOOP ( 'NONE', ( #24 ) ) ;
#80 = FACE_OUTER_BOUND ( 'NONE', #154, .T. ) ;
#81 = CARTESIAN_POINT ( 'NONE',  ( 0.0000000000000000000, 0.0000000000000000000, 0.0000000000000000000 ) ) ;
#82 = DIRECTION ( 'NONE',  ( -3.491481338843133355E-15, 1.224646799147353207E-16, -1.000000000000000000 ) ) ;
#83 = CARTESIAN_POINT ( 'NONE',  ( 2.444036937190193349E-14, 0.8584999999999991527, 7.000000000000000000 ) ) ;
#84 = CARTESIAN_POINT ( 'NONE',  ( 2.444036937190193349E-14, -8.572527594031473190E-16, 7.000000000000000000 ) ) ;
#85 = DATE_AND_TIME ( #260, #46 ) ;
#86 = DIRECTION ( 'NONE',  ( 0.0000000000000000000, 1.000000000000000000, 0.0000000000000000000 ) ) ;
#87 = CARTESIAN_POINT ( 'NONE',  ( 6.056776150402963091E-14, 0.7853844939755797450, 17.34729635533384595 ) ) ;
#88 = CARTESIAN_POINT ( 'NONE',  ( 8.728703347107831416E-16, -3.061616997868382402E-17, 0.2499999999999999445 ) ) ;
#89 = CLOSED_SHELL ( 'NONE', ( #127, #271, #94, #64, #187, #301, #135, #33 ) ) ;
#90 = ORIENTED_EDGE ( 'NONE', *, *, #43, .F. ) ;
#91 = AXIS2_PLACEMENT_3D ( 'NONE', #36, #125, #74 ) ;
#92 = APPROVAL_PERSON_ORGANIZATION ( #208, #47, #297 ) ;
#93 = PRODUCT_DEFINITION_FORMATION_WITH_SPECIFIED_SOURCE ( 'ANY', '', #69, .NOT_KNOWN. ) ;
#94 = ADVANCED_FACE ( 'NONE', ( #138, #192 ), #284, .T. ) ;
#95 = EDGE_CURVE ( 'NONE', #22, #22, #209, .T. ) ;
#96 = CIRCLE ( 'NONE', #276, 0.8585000000000000409 ) ;
#97 = AXIS2_PLACEMENT_3D ( 'NONE', #81, #2, #39 ) ;
#98 = EDGE_LOOP ( 'NONE', ( #150 ) ) ;
#99 = DIRECTION ( 'NONE',  ( -3.491481338843133355E-15, 1.224646799147353207E-16, -1.000000000000000000 ) ) ;
#100 = PLANE ( 'NONE',  #91 ) ;
#101 = SECURITY_CLASSIFICATION_LEVEL ( 'unclassified' ) ;
#102 = ORIENTED_EDGE ( 'NONE', *, *, #71, .F. ) ;
#103 = AXIS2_PLACEMENT_3D ( 'NONE', #57, #48, #254 ) ;
#104 = PRODUCT_RELATED_PRODUCT_CATEGORY ( 'detail', '', ( #69 ) ) ;
#105 = DIRECTION ( 'NONE',  ( -3.491481338843133355E-15, 1.224646799147353207E-16, -1.000000000000000000 ) ) ;
#106 = PERSON_AND_ORGANIZATION_ROLE ( 'design_owner' ) ;
#107 = ORIENTED_EDGE ( 'NONE', *, *, #169, .F. ) ;
#108 = CARTESIAN_POINT ( 'NONE',  ( 0.0000000000000000000, 0.0000000000000000000, 0.0000000000000000000 ) ) ;
#109 = CC_DESIGN_PERSON_AND_ORGANIZATION_ASSIGNMENT ( #269, #106, ( #69 ) ) ;
#110 = MANIFOLD_SOLID_BREP ( 'Corps-Déplacer/Copier1[1]', #89 ) ;
#111 = AXIS2_PLACEMENT_3D ( 'NONE', #112, #185, #165 ) ;
#112 = CARTESIAN_POINT ( 'NONE',  ( 7.471798793964006670E-14, -2.620754226895835754E-15, 21.40008228266718859 ) ) ;
#113 = DIRECTION ( 'NONE',  ( 0.0000000000000000000, 1.000000000000000000, 0.0000000000000000000 ) ) ;
#114 = CIRCLE ( 'NONE', #224, 0.7853844939755818544 ) ;
#115 = CC_DESIGN_APPROVAL ( #163, ( #296 ) ) ;
#116 = DIRECTION ( 'NONE',  ( 3.491481338843133355E-15, -1.224646799147353207E-16, 1.000000000000000000 ) ) ;
#117 = DIRECTION ( 'NONE',  ( 4.275831445896958607E-31, 1.000000000000000000, 1.224646799147353207E-16 ) ) ;
#118 = PERSON_AND_ORGANIZATION ( #243, #233 ) ;
#119 = AXIS2_PLACEMENT_3D ( 'NONE', #40, #116, #257 ) ;
#120 = LOCAL_TIME ( 9, 32, 44.00000000000000000, #295 ) ;
#121 = PRODUCT_DEFINITION_SHAPE ( 'NONE', 'NONE',  #213 ) ;
#122 = ORIENTED_EDGE ( 'NONE', *, *, #215, .T. ) ;
#123 = AXIS2_PLACEMENT_3D ( 'NONE', #88, #66, #292 ) ;
#124 = CARTESIAN_POINT ( 'NONE',  ( -5.804511804224323086E-32, 2.035948673869087936E-33, -1.662478255188838723E-17 ) ) ;
#125 = DIRECTION ( 'NONE',  ( -3.491481338843133355E-15, 1.224646799147353207E-16, -1.000000000000000000 ) ) ;
#126 = DIRECTION ( 'NONE',  ( 1.000000000000000000, 0.0000000000000000000, 0.0000000000000000000 ) ) ;
#127 = ADVANCED_FACE ( 'NONE', ( #184 ), #231, .F. ) ;
#128 = EDGE_LOOP ( 'NONE', ( #200 ) ) ;
#129 = FACE_OUTER_BOUND ( 'NONE', #79, .T. ) ;
#130 =( NAMED_UNIT ( * ) SI_UNIT ( $, .STERADIAN. ) SOLID_ANGLE_UNIT ( ) );
#131 = DIRECTION ( 'NONE',  ( 0.0000000000000000000, 1.000000000000000000, 0.0000000000000000000 ) ) ;
#132 = AXIS2_PLACEMENT_3D ( 'NONE', #21, #141, #86 ) ;
#133 = ORIENTED_EDGE ( 'NONE', *, *, #95, .T. ) ;
#134 = DIRECTION ( 'NONE',  ( -4.275831445896958607E-31, -1.000000000000000000, -1.224646799147353207E-16 ) ) ;
#135 = ADVANCED_FACE ( 'NONE', ( #61, #189 ), #216, .T. ) ;
#136 = PERSON_AND_ORGANIZATION_ROLE ( 'design_supplier' ) ;
#137 = DIRECTION ( 'NONE',  ( 0.0000000000000000000, 1.000000000000000000, 0.0000000000000000000 ) ) ;
#138 = FACE_OUTER_BOUND ( 'NONE', #278, .T. ) ;
#139 = AXIS2_PLACEMENT_3D ( 'NONE', #251, #32, #131 ) ;
#140 = LOCAL_TIME ( 9, 32, 44.00000000000000000, #78 ) ;
#141 = DIRECTION ( 'NONE',  ( -3.491481338843133355E-15, 1.224646799147353207E-16, -1.000000000000000000 ) ) ;
#142 = CARTESIAN_POINT ( 'NONE',  ( 1.892735826383161137E-31, 0.7141624327025949404, 5.421010862427522170E-17 ) ) ;
#143 = CARTESIAN_POINT ( 'NONE',  ( 1.735266225405037467E-13, -6.086494591762345225E-15, 49.70000000000000284 ) ) ;
#144 = UNCERTAINTY_MEASURE_WITH_UNIT (LENGTH_MEASURE( 1.000000000000000082E-05 ), #31, 'distance_accuracy_value', 'NONE');
#145 = DIRECTION ( 'NONE',  ( -3.491481338843133355E-15, 1.224646799147353207E-16, -1.000000000000000000 ) ) ;
#146 = PLANE ( 'NONE',  #51 ) ;
#147 =( GEOMETRIC_REPRESENTATION_CONTEXT ( 3 ) GLOBAL_UNCERTAINTY_ASSIGNED_CONTEXT ( ( #144 ) ) GLOBAL_UNIT_ASSIGNED_CONTEXT ( ( #31, #302, #130 ) ) REPRESENTATION_CONTEXT ( 'NONE', 'WORKASPACE' ) );
#148 = ORIENTED_EDGE ( 'NONE', *, *, #49, .T. ) ;
#149 = PERSON_AND_ORGANIZATION_ROLE ( 'creator' ) ;
#150 = ORIENTED_EDGE ( 'NONE', *, *, #68, .F. ) ;
#151 = APPLICATION_PROTOCOL_DEFINITION ( 'international standard', 'config_control_design', 1994, #199 ) ;
#152 = FACE_OUTER_BOUND ( 'NONE', #249, .T. ) ;
#153 = APPROVAL_DATE_TIME ( #223, #47 ) ;
#154 = EDGE_LOOP ( 'NONE', ( #15 ) ) ;
#155 = AXIS2_PLACEMENT_3D ( 'NONE', #44, #239, #117 ) ;
#156 = DATE_AND_TIME ( #252, #176 ) ;
#157 = DIRECTION ( 'NONE',  ( -3.491481338843133355E-15, 1.224646799147353207E-16, -1.000000000000000000 ) ) ;
#158 = CARTESIAN_POINT ( 'NONE',  ( 5.935518276033326704E-14, -2.168404344971008868E-15, 17.00000000000000000 ) ) ;
#159 = CIRCLE ( 'NONE', #198, 0.8584999999999991527 ) ;
#160 = CIRCLE ( 'NONE', #132, 0.7549999999999998934 ) ;
#161 = LOCAL_TIME ( 9, 32, 44.00000000000000000, #29 ) ;
#162 = DIRECTION ( 'NONE',  ( 0.0000000000000000000, 1.000000000000000000, 0.0000000000000000000 ) ) ;
#163 = APPROVAL ( #167, 'UNSPECIFIED' ) ;
#164 = VERTEX_POINT ( 'NONE', #142 ) ;
#165 = DIRECTION ( 'NONE',  ( 0.0000000000000000000, -1.000000000000000000, 0.0000000000000000000 ) ) ;
#166 = CARTESIAN_POINT ( 'NONE',  ( 5.935518276033326704E-14, 0.7549999999999978950, 17.00000000000000000 ) ) ;
#167 = APPROVAL_STATUS ( 'not_yet_approved' ) ;
#168 = CYLINDRICAL_SURFACE ( 'NONE', #63, 0.8584999999999995968 ) ;
#169 = EDGE_CURVE ( 'NONE', #280, #280, #160, .T. ) ;
#170 = AXIS2_PLACEMENT_3D ( 'NONE', #143, #279, #162 ) ;
#171 = EDGE_LOOP ( 'NONE', ( #196 ) ) ;
#172 = CIRCLE ( 'NONE', #195, 1.200000000000001732 ) ;
#173 = CC_DESIGN_PERSON_AND_ORGANIZATION_ASSIGNMENT ( #275, #59, ( #93 ) ) ;
#174 = COORDINATED_UNIVERSAL_TIME_OFFSET ( 1, 0, .AHEAD. ) ;
#175 = AXIS2_PLACEMENT_3D ( 'NONE', #225, #105, #206 ) ;
#176 = LOCAL_TIME ( 9, 32, 44.00000000000000000, #174 ) ;
#177 = EDGE_LOOP ( 'NONE', ( #148 ) ) ;
#178 = APPROVAL_STATUS ( 'not_yet_approved' ) ;
#179 = EDGE_LOOP ( 'NONE', ( #56 ) ) ;
#180 = CARTESIAN_POINT ( 'NONE',  ( 2.444036937190193349E-14, 6.437718867076010015E-33, 7.000000000000000000 ) ) ;
#181 = APPROVAL_ROLE ( '' ) ;
#182 = EDGE_LOOP ( 'NONE', ( #50 ) ) ;
#183 = DIRECTION ( 'NONE',  ( -3.491481338843133355E-15, 1.224646799147353207E-16, -1.000000000000000000 ) ) ;
#184 = FACE_OUTER_BOUND ( 'NONE', #204, .T. ) ;
#185 = DIRECTION ( 'NONE',  ( 3.491481338843133355E-15, -1.224646799147353207E-16, 1.000000000000000000 ) ) ;
#186 = CARTESIAN_POINT ( 'NONE',  ( 2.444036937190193349E-14, 0.8584999999999991527, 7.000000000000000000 ) ) ;
#187 = ADVANCED_FACE ( 'NONE', ( #232, #282 ), #289, .T. ) ;
#188 = SHAPE_DEFINITION_REPRESENTATION ( #121, #7 ) ;
#189 = FACE_BOUND ( 'NONE', #287, .T. ) ;
#190 = DATE_AND_TIME ( #262, #161 ) ;
#191 = ADVANCED_FACE ( 'NONE', ( #62, #258 ), #168, .T. ) ;
#192 = FACE_OUTER_BOUND ( 'NONE', #266, .T. ) ;
#193 = FACE_BOUND ( 'NONE', #128, .T. ) ;
#194 = CC_DESIGN_DATE_AND_TIME_ASSIGNMENT ( #156, #220, ( #213 ) ) ;
#195 = AXIS2_PLACEMENT_3D ( 'NONE', #229, #183, #77 ) ;
#196 = ORIENTED_EDGE ( 'NONE', *, *, #68, .T. ) ;
#197 = VERTEX_POINT ( 'NONE', #265 ) ;
#198 = AXIS2_PLACEMENT_3D ( 'NONE', #298, #76, #228 ) ;
#199 = APPLICATION_CONTEXT ( 'configuration controlled 3d designs of mechanical parts and assemblies' ) ;
#200 = ORIENTED_EDGE ( 'NONE', *, *, #215, .F. ) ;
#201 = EDGE_LOOP ( 'NONE', ( #30 ) ) ;
#202 = DIRECTION ( 'NONE',  ( 0.0000000000000000000, 0.0000000000000000000, 1.000000000000000000 ) ) ;
#203 = APPROVAL_PERSON_ORGANIZATION ( #118, #163, #235 ) ;
#204 = EDGE_LOOP ( 'NONE', ( #290 ) ) ;
#205 = MECHANICAL_CONTEXT ( 'NONE', #299, 'mechanical' ) ;
#206 = DIRECTION ( 'NONE',  ( 0.0000000000000000000, 1.000000000000000000, 0.0000000000000000000 ) ) ;
#207 = FACE_OUTER_BOUND ( 'NONE', #171, .T. ) ;
#208 = PERSON_AND_ORGANIZATION ( #243, #233 ) ;
#209 = CIRCLE ( 'NONE', #241, 0.8585000000000000409 ) ;
#210 = DIRECTION ( 'NONE',  ( 4.275831445896958607E-31, 1.000000000000000000, 1.224646799147353207E-16 ) ) ;
#211 = VERTEX_POINT ( 'NONE', #186 ) ;
#212 = MANIFOLD_SOLID_BREP ( 'Corps-Déplacer/Copier1[2]', #12 ) ;
#213 = PRODUCT_DEFINITION ( 'UNKNOWN', '', #93, #65 ) ;
#214 = CC_DESIGN_PERSON_AND_ORGANIZATION_ASSIGNMENT ( #230, #248, ( #296 ) ) ;
#215 = EDGE_CURVE ( 'NONE', #164, #164, #281, .T. ) ;
#216 = CONICAL_SURFACE ( 'NONE', #294, 1.200000000000001732, 0.7853981633974453924 ) ;
#217 = ORIENTED_EDGE ( 'NONE', *, *, #244, .F. ) ;
#218 = ORIENTED_EDGE ( 'NONE', *, *, #71, .T. ) ;
#219 = DIRECTION ( 'NONE',  ( -4.275831445896958607E-31, -1.000000000000000000, -1.224646799147353207E-16 ) ) ;
#220 = DATE_TIME_ROLE ( 'creation_date' ) ;
#221 = DIRECTION ( 'NONE',  ( -3.491481338843133355E-15, 1.224646799147353207E-16, -1.000000000000000000 ) ) ;
#222 = PLANE ( 'NONE',  #237 ) ;
#223 = DATE_AND_TIME ( #72, #140 ) ;
#224 = AXIS2_PLACEMENT_3D ( 'NONE', #303, #157, #113 ) ;
#225 = CARTESIAN_POINT ( 'NONE',  ( 2.506627765991136237E-14, -8.792066668447528551E-16, 7.179267258583378108 ) ) ;
#226 = APPROVAL ( #178, 'UNSPECIFIED' ) ;
#227 = APPROVAL_DATE_TIME ( #35, #226 ) ;
#228 = DIRECTION ( 'NONE',  ( 4.486732543709348543E-31, 1.000000000000000000, 1.262902938247531235E-16 ) ) ;
#229 = CARTESIAN_POINT ( 'NONE',  ( 1.745740669421566678E-13, -6.123233995736766085E-15, 50.00000000000000000 ) ) ;
#230 = PERSON_AND_ORGANIZATION ( #243, #233 ) ;
#231 = PLANE ( 'NONE',  #119 ) ;
#232 = FACE_BOUND ( 'NONE', #98, .T. ) ;
#233 = ORGANIZATION ( 'UNSPECIFIED', 'UNSPECIFIED', '' ) ;
#234 = VERTEX_POINT ( 'NONE', #1 ) ;
#235 = APPROVAL_ROLE ( '' ) ;
#236 = VERTEX_POINT ( 'NONE', #259 ) ;
#237 = AXIS2_PLACEMENT_3D ( 'NONE', #124, #13, #134 ) ;
#238 = CC_DESIGN_DATE_AND_TIME_ASSIGNMENT ( #190, #10, ( #296 ) ) ;
#239 = DIRECTION ( 'NONE',  ( -3.491481338843133355E-15, 1.224646799147353207E-16, -1.000000000000000000 ) ) ;
#240 = ADVANCED_FACE ( 'NONE', ( #193, #6 ), #4, .T. ) ;
#241 = AXIS2_PLACEMENT_3D ( 'NONE', #84, #256, #137 ) ;
#242 = ORIENTED_EDGE ( 'NONE', *, *, #244, .T. ) ;
#243 = PERSON ( 'UNSPECIFIED', 'UNSPECIFIED', 'UNSPECIFIED', ('UNSPECIFIED'), ('UNSPECIFIED'), ('UNSPECIFIED') ) ;
#244 = EDGE_CURVE ( 'NONE', #236, #236, #172, .T. ) ;
#245 = ORIENTED_EDGE ( 'NONE', *, *, #41, .T. ) ;
#246 = CARTESIAN_POINT ( 'NONE',  ( 0.0000000000000000000, 0.0000000000000000000, 0.0000000000000000000 ) ) ;
#247 = EDGE_LOOP ( 'NONE', ( #245 ) ) ;
#248 = PERSON_AND_ORGANIZATION_ROLE ( 'classification_officer' ) ;
#249 = EDGE_LOOP ( 'NONE', ( #217 ) ) ;
#250 = PERSON_AND_ORGANIZATION ( #243, #233 ) ;
#251 = CARTESIAN_POINT ( 'NONE',  ( 7.471798793964006670E-14, -2.620754226895835754E-15, 21.40008228266718859 ) ) ;
#252 = CALENDAR_DATE ( 2021, 30, 11 ) ;
#253 = CARTESIAN_POINT ( 'NONE',  ( 2.444036937190193349E-14, -8.572527594031473190E-16, 7.000000000000000000 ) ) ;
#254 = DIRECTION ( 'NONE',  ( 0.0000000000000000000, 1.000000000000000000, 0.0000000000000000000 ) ) ;
#255 = VERTEX_POINT ( 'NONE', #87 ) ;
#256 = DIRECTION ( 'NONE',  ( -3.491481338843133355E-15, 1.224646799147353207E-16, -1.000000000000000000 ) ) ;
#257 = DIRECTION ( 'NONE',  ( -4.275831445896958607E-31, -1.000000000000000000, -1.224646799147353207E-16 ) ) ;
#258 = FACE_OUTER_BOUND ( 'NONE', #54, .T. ) ;
#259 = CARTESIAN_POINT ( 'NONE',  ( 1.745740669421566678E-13, 1.199999999999995515, 50.00000000000000000 ) ) ;
#260 = CALENDAR_DATE ( 2021, 30, 11 ) ;
#261 = CARTESIAN_POINT ( 'NONE',  ( 0.0000000000000000000, 0.0000000000000000000, 0.0000000000000000000 ) ) ;
#262 = CALENDAR_DATE ( 2021, 30, 11 ) ;
#263 = APPROVAL_PERSON_ORGANIZATION ( #75, #226, #181 ) ;
#264 = CARTESIAN_POINT ( 'NONE',  ( 7.471798793964006670E-14, 1.499999999999994005, 21.40008228266718859 ) ) ;
#265 = CARTESIAN_POINT ( 'NONE',  ( 2.506627765991136237E-14, 0.7549999999999995604, 7.179267258583378108 ) ) ;
#266 = EDGE_LOOP ( 'NONE', ( #90 ) ) ;
#267 = FACE_BOUND ( 'NONE', #182, .T. ) ;
#268 = CIRCLE ( 'NONE', #139, 1.499999999999996669 ) ;
#269 = PERSON_AND_ORGANIZATION ( #243, #233 ) ;
#270 = EDGE_LOOP ( 'NONE', ( #107 ) ) ;
#271 = ADVANCED_FACE ( 'NONE', ( #267, #80 ), #286, .T. ) ;
#272 = CC_DESIGN_PERSON_AND_ORGANIZATION_ASSIGNMENT ( #38, #136, ( #93 ) ) ;
#273 = EDGE_LOOP ( 'NONE', ( #102 ) ) ;
#274 = DIRECTION ( 'NONE',  ( 3.491481338843133355E-15, -1.224646799147353207E-16, 1.000000000000000000 ) ) ;
#275 = PERSON_AND_ORGANIZATION ( #243, #233 ) ;
#276 = AXIS2_PLACEMENT_3D ( 'NONE', #253, #221, #28 ) ;
#277 = AXIS2_PLACEMENT_3D ( 'NONE', #246, #99, #73 ) ;
#278 = EDGE_LOOP ( 'NONE', ( #285 ) ) ;
#279 = DIRECTION ( 'NONE',  ( -3.491481338843133355E-15, 1.224646799147353207E-16, -1.000000000000000000 ) ) ;
#280 = VERTEX_POINT ( 'NONE', #166 ) ;
#281 = CIRCLE ( 'NONE', #155, 0.7141624327025949404 ) ;
#282 = FACE_OUTER_BOUND ( 'NONE', #247, .T. ) ;
#283 = APPROVAL_DATE_TIME ( #85, #163 ) ;
#284 = CYLINDRICAL_SURFACE ( 'NONE', #97, 0.7550000000000002265 ) ;
#285 = ORIENTED_EDGE ( 'NONE', *, *, #169, .T. ) ;
#286 = CONICAL_SURFACE ( 'NONE', #103, 0.8585000000000000409, 0.5235987755982985936 ) ;
#287 = EDGE_LOOP ( 'NONE', ( #242 ) ) ;
#288 = ADVANCED_FACE ( 'NONE', ( #129 ), #146, .T. ) ;
#289 = CONICAL_SURFACE ( 'NONE', #111, 1.499999999999996669, 0.1745329251994257591 ) ;
#290 = ORIENTED_EDGE ( 'NONE', *, *, #20, .T. ) ;
#291 = APPLICATION_PROTOCOL_DEFINITION ( 'international standard', 'config_control_design', 1994, #299 ) ;
#292 = DIRECTION ( 'NONE',  ( -4.486732543709348543E-31, -1.000000000000000000, -1.262902938247531235E-16 ) ) ;
#293 = ADVANCED_FACE ( 'NONE', ( #37 ), #222, .F. ) ;
#294 = AXIS2_PLACEMENT_3D ( 'NONE', #42, #19, #3 ) ;
#295 = COORDINATED_UNIVERSAL_TIME_OFFSET ( 1, 0, .AHEAD. ) ;
#296 = SECURITY_CLASSIFICATION ( '', '', #101 ) ;
#297 = APPROVAL_ROLE ( '' ) ;
#298 = CARTESIAN_POINT ( 'NONE',  ( 8.728703347107831416E-16, -3.061616997868382402E-17, 0.2499999999999999445 ) ) ;
#299 = APPLICATION_CONTEXT ( 'configuration controlled 3d designs of mechanical parts and assemblies' ) ;
#300 = APPROVAL_STATUS ( 'not_yet_approved' ) ;
#301 = ADVANCED_FACE ( 'NONE', ( #52, #14 ), #16, .T. ) ;
#302 =( NAMED_UNIT ( * ) PLANE_ANGLE_UNIT ( ) SI_UNIT ( $, .RADIAN. ) );
#303 = CARTESIAN_POINT ( 'NONE',  ( 6.056776150402963091E-14, -2.124431095542013992E-15, 17.34729635533384595 ) ) ;
ENDSEC;
END-ISO-10303-21;
