ISO-10303-21;
HEADER;
FILE_DESCRIPTION (( 'STEP AP203' ),
    '1' );
FILE_NAME ('663.step',
    '2021-12-06T13:00:10',
    ( '' ),
    ( '' ),
    'SwSTEP 2.0',
    'SolidWorks 2019',
    '' );
FILE_SCHEMA (( 'CONFIG_CONTROL_DESIGN' ));
ENDSEC;

DATA;
#1 = FACE_OUTER_BOUND ( 'NONE', #120, .T. ) ;
#2 = DESIGN_CONTEXT ( 'detailed design', #11, 'design' ) ;
#3 = APPLICATION_CONTEXT ( 'configuration controlled 3d designs of mechanical parts and assemblies' ) ;
#4 = DIRECTION ( 'NONE',  ( -4.275831445896958607E-31, -1.000000000000000000, -1.224646799147353207E-16 ) ) ;
#5 = PERSON_AND_ORGANIZATION ( #36, #129 ) ;
#6 = ADVANCED_FACE ( 'NONE', ( #40, #118 ), #134, .T. ) ;
#7 = CLOSED_SHELL ( 'NONE', ( #6, #151, #140, #97 ) ) ;
#8 = PERSON_AND_ORGANIZATION ( #36, #129 ) ;
#9 = CARTESIAN_POINT ( 'NONE',  ( 0.0000000000000000000, 25.00000000000000000, 0.0000000000000000000 ) ) ;
#10 = DATE_AND_TIME ( #139, #168 ) ;
#11 = APPLICATION_CONTEXT ( 'configuration controlled 3d designs of mechanical parts and assemblies' ) ;
#12 = CARTESIAN_POINT ( 'NONE',  ( 0.0000000000000000000, 0.0000000000000000000, 0.0000000000000000000 ) ) ;
#13 = PRODUCT_DEFINITION ( 'UNKNOWN', '', #165, #2 ) ;
#14 = ORIENTED_EDGE ( 'NONE', *, *, #128, .T. ) ;
#15 = DIRECTION ( 'NONE',  ( 4.740750632337811128E-31, 1.000000000000000000, 1.334402673828313093E-16 ) ) ;
#16 = FACE_OUTER_BOUND ( 'NONE', #94, .T. ) ;
#17 = APPROVAL_ROLE ( '' ) ;
#18 = PERSON_AND_ORGANIZATION ( #36, #129 ) ;
#19 = CARTESIAN_POINT ( 'NONE',  ( -1.068957861474239634E-29, 3.749399456654644239E-31, -3.061616997868383043E-15 ) ) ;
#20 = ORIENTED_EDGE ( 'NONE', *, *, #77, .F. ) ;
#21 = DIRECTION ( 'NONE',  ( -3.491481338843133355E-15, 1.224646799147353207E-16, -1.000000000000000000 ) ) ;
#22 =( NAMED_UNIT ( * ) SI_UNIT ( $, .STERADIAN. ) SOLID_ANGLE_UNIT ( ) );
#23 = AXIS2_PLACEMENT_3D ( 'NONE', #141, #156, #66 ) ;
#24 = PERSON_AND_ORGANIZATION_ROLE ( 'creator' ) ;
#25 = CC_DESIGN_DATE_AND_TIME_ASSIGNMENT ( #138, #115, ( #30 ) ) ;
#26 = PRODUCT ( '663', '663', '', ( #158 ) ) ;
#27 =( LENGTH_UNIT ( ) NAMED_UNIT ( * ) SI_UNIT ( .MILLI., .METRE. ) );
#28 = DATE_AND_TIME ( #159, #122 ) ;
#29 = CARTESIAN_POINT ( 'NONE',  ( 0.0000000000000000000, 6.500000000000000000, 0.0000000000000000000 ) ) ;
#30 = SECURITY_CLASSIFICATION ( '', '', #45 ) ;
#31 = EDGE_CURVE ( 'NONE', #109, #109, #43, .T. ) ;
#32 = COORDINATED_UNIVERSAL_TIME_OFFSET ( 1, 0, .AHEAD. ) ;
#33 = CIRCLE ( 'NONE', #92, 6.500000000000000000 ) ;
#34 = ADVANCED_BREP_SHAPE_REPRESENTATION ( '663', ( #98, #88 ), #155 ) ;
#35 = DIRECTION ( 'NONE',  ( 4.275831445896958607E-31, 1.000000000000000000, 1.224646799147353207E-16 ) ) ;
#36 = PERSON ( 'UNSPECIFIED', 'UNSPECIFIED', 'UNSPECIFIED', ('UNSPECIFIED'), ('UNSPECIFIED'), ('UNSPECIFIED') ) ;
#37 = EDGE_LOOP ( 'NONE', ( #82 ) ) ;
#38 = PRODUCT_DEFINITION_SHAPE ( 'NONE', 'NONE',  #13 ) ;
#39 = AXIS2_PLACEMENT_3D ( 'NONE', #12, #54, #137 ) ;
#40 = FACE_OUTER_BOUND ( 'NONE', #37, .T. ) ;
#41 = DIRECTION ( 'NONE',  ( -3.491481338843133355E-15, 1.224646799147353207E-16, -1.000000000000000000 ) ) ;
#42 = COORDINATED_UNIVERSAL_TIME_OFFSET ( 1, 0, .AHEAD. ) ;
#43 = CIRCLE ( 'NONE', #163, 25.00000000000000000 ) ;
#44 =( NAMED_UNIT ( * ) PLANE_ANGLE_UNIT ( ) SI_UNIT ( $, .RADIAN. ) );
#45 = SECURITY_CLASSIFICATION_LEVEL ( 'unclassified' ) ;
#46 = PERSON_AND_ORGANIZATION_ROLE ( 'classification_officer' ) ;
#47 = LOCAL_TIME ( 14, 0, 10.00000000000000000, #157 ) ;
#48 = COORDINATED_UNIVERSAL_TIME_OFFSET ( 1, 0, .AHEAD. ) ;
#49 = LOCAL_TIME ( 14, 0, 10.00000000000000000, #42 ) ;
#50 = ORIENTED_EDGE ( 'NONE', *, *, #128, .F. ) ;
#51 = EDGE_LOOP ( 'NONE', ( #132 ) ) ;
#52 = CARTESIAN_POINT ( 'NONE',  ( 0.0000000000000000000, 0.0000000000000000000, 0.0000000000000000000 ) ) ;
#53 = FACE_OUTER_BOUND ( 'NONE', #105, .T. ) ;
#54 = DIRECTION ( 'NONE',  ( -3.491481338843133355E-15, 1.224646799147353207E-16, -1.000000000000000000 ) ) ;
#55 = PERSON_AND_ORGANIZATION ( #36, #129 ) ;
#56 = APPROVAL_PERSON_ORGANIZATION ( #150, #160, #166 ) ;
#57 = DIRECTION ( 'NONE',  ( 0.0000000000000000000, 0.0000000000000000000, 1.000000000000000000 ) ) ;
#58 = CARTESIAN_POINT ( 'NONE',  ( 5.586370142149014157E-15, 6.500000000000000000, 1.600000000000000089 ) ) ;
#59 = PERSON_AND_ORGANIZATION ( #36, #129 ) ;
#60 = CIRCLE ( 'NONE', #127, 25.00000000000000000 ) ;
#61 = CC_DESIGN_PERSON_AND_ORGANIZATION_ASSIGNMENT ( #145, #24, ( #165 ) ) ;
#62 = PRODUCT_RELATED_PRODUCT_CATEGORY ( 'detail', '', ( #26 ) ) ;
#63 = FACE_OUTER_BOUND ( 'NONE', #107, .T. ) ;
#64 = EDGE_LOOP ( 'NONE', ( #14 ) ) ;
#65 = APPROVAL_PERSON_ORGANIZATION ( #18, #112, #17 ) ;
#66 = DIRECTION ( 'NONE',  ( 4.275831445896958607E-31, 1.000000000000000000, 1.224646799147353207E-16 ) ) ;
#67 = FACE_OUTER_BOUND ( 'NONE', #51, .T. ) ;
#68 = UNCERTAINTY_MEASURE_WITH_UNIT (LENGTH_MEASURE( 1.000000000000000082E-05 ), #27, 'distance_accuracy_value', 'NONE');
#69 = FACE_BOUND ( 'NONE', #64, .T. ) ;
#70 = APPROVAL ( #125, 'UNSPECIFIED' ) ;
#71 = CALENDAR_DATE ( 2021, 6, 12 ) ;
#72 = DATE_AND_TIME ( #96, #49 ) ;
#73 = CIRCLE ( 'NONE', #99, 6.500000000000000000 ) ;
#74 = CC_DESIGN_APPROVAL ( #160, ( #30 ) ) ;
#75 = VERTEX_POINT ( 'NONE', #29 ) ;
#76 = PERSON_AND_ORGANIZATION_ROLE ( 'creator' ) ;
#77 = EDGE_CURVE ( 'NONE', #124, #124, #60, .T. ) ;
#78 = LOCAL_TIME ( 14, 0, 10.00000000000000000, #32 ) ;
#79 = ORIENTED_EDGE ( 'NONE', *, *, #31, .F. ) ;
#80 = CARTESIAN_POINT ( 'NONE',  ( 5.586370142149010213E-15, 6.500000000000000000, 1.599999999999998979 ) ) ;
#81 = ORIENTED_EDGE ( 'NONE', *, *, #31, .T. ) ;
#82 = ORIENTED_EDGE ( 'NONE', *, *, #77, .T. ) ;
#83 = CC_DESIGN_SECURITY_CLASSIFICATION ( #30, ( #165 ) ) ;
#84 = DIRECTION ( 'NONE',  ( 1.000000000000000000, 0.0000000000000000000, 0.0000000000000000000 ) ) ;
#85 = DATE_AND_TIME ( #71, #47 ) ;
#86 = APPROVAL_DATE_TIME ( #28, #70 ) ;
#87 = VERTEX_POINT ( 'NONE', #58 ) ;
#88 = AXIS2_PLACEMENT_3D ( 'NONE', #148, #57, #84 ) ;
#89 = SHAPE_DEFINITION_REPRESENTATION ( #38, #34 ) ;
#90 = CC_DESIGN_PERSON_AND_ORGANIZATION_ASSIGNMENT ( #113, #161, ( #26 ) ) ;
#91 = CARTESIAN_POINT ( 'NONE',  ( -2.779290439833023007E-30, 9.748438587302075546E-32, -7.960204194457795477E-16 ) ) ;
#92 = AXIS2_PLACEMENT_3D ( 'NONE', #143, #133, #15 ) ;
#93 = CC_DESIGN_PERSON_AND_ORGANIZATION_ASSIGNMENT ( #8, #111, ( #165 ) ) ;
#94 = EDGE_LOOP ( 'NONE', ( #79 ) ) ;
#95 = APPROVAL_ROLE ( '' ) ;
#96 = CALENDAR_DATE ( 2021, 6, 12 ) ;
#97 = ADVANCED_FACE ( 'NONE', ( #67, #63 ), #153, .F. ) ;
#98 = MANIFOLD_SOLID_BREP ( 'Corps-Déplacer/Copier1', #7 ) ;
#99 = AXIS2_PLACEMENT_3D ( 'NONE', #91, #41, #169 ) ;
#100 = CALENDAR_DATE ( 2021, 6, 12 ) ;
#101 = EDGE_CURVE ( 'NONE', #75, #75, #73, .T. ) ;
#102 = CARTESIAN_POINT ( 'NONE',  ( 5.586370142149003113E-15, -1.959434878635761532E-16, 1.599999999999996980 ) ) ;
#103 = DIRECTION ( 'NONE',  ( -3.491481338843133355E-15, 1.224646799147353207E-16, -1.000000000000000000 ) ) ;
#104 = CC_DESIGN_PERSON_AND_ORGANIZATION_ASSIGNMENT ( #5, #76, ( #13 ) ) ;
#105 = EDGE_LOOP ( 'NONE', ( #20 ) ) ;
#106 = AXIS2_PLACEMENT_3D ( 'NONE', #52, #103, #35 ) ;
#107 = EDGE_LOOP ( 'NONE', ( #50 ) ) ;
#108 = CARTESIAN_POINT ( 'NONE',  ( 5.586370142149014157E-15, 25.00000000000000000, 1.600000000000000089 ) ) ;
#109 = VERTEX_POINT ( 'NONE', #108 ) ;
#110 = COORDINATED_UNIVERSAL_TIME_OFFSET ( 1, 0, .AHEAD. ) ;
#111 = PERSON_AND_ORGANIZATION_ROLE ( 'design_supplier' ) ;
#112 = APPROVAL ( #136, 'UNSPECIFIED' ) ;
#113 = PERSON_AND_ORGANIZATION ( #36, #129 ) ;
#114 = APPROVAL_DATE_TIME ( #10, #160 ) ;
#115 = DATE_TIME_ROLE ( 'classification_date' ) ;
#116 = EDGE_LOOP ( 'NONE', ( #154 ) ) ;
#117 = CC_DESIGN_APPROVAL ( #70, ( #165 ) ) ;
#118 = FACE_BOUND ( 'NONE', #116, .T. ) ;
#119 = DIRECTION ( 'NONE',  ( 4.275831445896958607E-31, 1.000000000000000000, 1.224646799147353207E-16 ) ) ;
#120 = EDGE_LOOP ( 'NONE', ( #81 ) ) ;
#121 = PLANE ( 'NONE',  #135 ) ;
#122 = LOCAL_TIME ( 14, 0, 10.00000000000000000, #110 ) ;
#123 = CC_DESIGN_DATE_AND_TIME_ASSIGNMENT ( #72, #162, ( #13 ) ) ;
#124 = VERTEX_POINT ( 'NONE', #9 ) ;
#125 = APPROVAL_STATUS ( 'not_yet_approved' ) ;
#126 = APPLICATION_PROTOCOL_DEFINITION ( 'international standard', 'config_control_design', 1994, #11 ) ;
#127 = AXIS2_PLACEMENT_3D ( 'NONE', #19, #21, #119 ) ;
#128 = EDGE_CURVE ( 'NONE', #87, #87, #33, .T. ) ;
#129 = ORGANIZATION ( 'UNSPECIFIED', 'UNSPECIFIED', '' ) ;
#130 = CYLINDRICAL_SURFACE ( 'NONE', #39, 25.00000000000000000 ) ;
#131 = DIRECTION ( 'NONE',  ( 3.491481338843133355E-15, -1.224646799147353207E-16, 1.000000000000000000 ) ) ;
#132 = ORIENTED_EDGE ( 'NONE', *, *, #101, .T. ) ;
#133 = DIRECTION ( 'NONE',  ( -3.491481338843133355E-15, 1.224646799147353207E-16, -1.000000000000000000 ) ) ;
#134 = PLANE ( 'NONE',  #23 ) ;
#135 = AXIS2_PLACEMENT_3D ( 'NONE', #80, #131, #4 ) ;
#136 = APPROVAL_STATUS ( 'not_yet_approved' ) ;
#137 = DIRECTION ( 'NONE',  ( 4.275831445896958607E-31, 1.000000000000000000, 1.224646799147353207E-16 ) ) ;
#138 = DATE_AND_TIME ( #100, #78 ) ;
#139 = CALENDAR_DATE ( 2021, 6, 12 ) ;
#140 = ADVANCED_FACE ( 'NONE', ( #69, #16 ), #121, .T. ) ;
#141 = CARTESIAN_POINT ( 'NONE',  ( -3.955144087454686842E-30, 6.500000000000000000, -1.132798289211301895E-15 ) ) ;
#142 = CC_DESIGN_APPROVAL ( #112, ( #13 ) ) ;
#143 = CARTESIAN_POINT ( 'NONE',  ( 5.586370142149011002E-15, -1.959434878635764244E-16, 1.599999999999999201 ) ) ;
#144 = DIRECTION ( 'NONE',  ( -3.491481338843133355E-15, 1.224646799147353207E-16, -1.000000000000000000 ) ) ;
#145 = PERSON_AND_ORGANIZATION ( #36, #129 ) ;
#146 = APPROVAL_DATE_TIME ( #85, #112 ) ;
#147 = APPLICATION_PROTOCOL_DEFINITION ( 'international standard', 'config_control_design', 1994, #3 ) ;
#148 = CARTESIAN_POINT ( 'NONE',  ( 0.0000000000000000000, 0.0000000000000000000, 0.0000000000000000000 ) ) ;
#149 = APPROVAL_PERSON_ORGANIZATION ( #55, #70, #95 ) ;
#150 = PERSON_AND_ORGANIZATION ( #36, #129 ) ;
#151 = ADVANCED_FACE ( 'NONE', ( #1, #53 ), #130, .T. ) ;
#152 = APPROVAL_STATUS ( 'not_yet_approved' ) ;
#153 = CYLINDRICAL_SURFACE ( 'NONE', #106, 6.500000000000000000 ) ;
#154 = ORIENTED_EDGE ( 'NONE', *, *, #101, .F. ) ;
#155 =( GEOMETRIC_REPRESENTATION_CONTEXT ( 3 ) GLOBAL_UNCERTAINTY_ASSIGNED_CONTEXT ( ( #68 ) ) GLOBAL_UNIT_ASSIGNED_CONTEXT ( ( #27, #44, #22 ) ) REPRESENTATION_CONTEXT ( 'NONE', 'WORKASPACE' ) );
#156 = DIRECTION ( 'NONE',  ( -3.491481338843133355E-15, 1.224646799147353207E-16, -1.000000000000000000 ) ) ;
#157 = COORDINATED_UNIVERSAL_TIME_OFFSET ( 1, 0, .AHEAD. ) ;
#158 = MECHANICAL_CONTEXT ( 'NONE', #3, 'mechanical' ) ;
#159 = CALENDAR_DATE ( 2021, 6, 12 ) ;
#160 = APPROVAL ( #152, 'UNSPECIFIED' ) ;
#161 = PERSON_AND_ORGANIZATION_ROLE ( 'design_owner' ) ;
#162 = DATE_TIME_ROLE ( 'creation_date' ) ;
#163 = AXIS2_PLACEMENT_3D ( 'NONE', #102, #144, #167 ) ;
#164 = CC_DESIGN_PERSON_AND_ORGANIZATION_ASSIGNMENT ( #59, #46, ( #30 ) ) ;
#165 = PRODUCT_DEFINITION_FORMATION_WITH_SPECIFIED_SOURCE ( 'ANY', '', #26, .NOT_KNOWN. ) ;
#166 = APPROVAL_ROLE ( '' ) ;
#167 = DIRECTION ( 'NONE',  ( 4.314083075427408311E-31, 1.000000000000000000, 1.214306433183764966E-16 ) ) ;
#168 = LOCAL_TIME ( 14, 0, 10.00000000000000000, #48 ) ;
#169 = DIRECTION ( 'NONE',  ( 4.275831445896958607E-31, 1.000000000000000000, 1.224646799147353207E-16 ) ) ;
ENDSEC;
END-ISO-10303-21;
