ISO-10303-21;
HEADER;
FILE_DESCRIPTION (( 'STEP AP203' ),
    '1' );
FILE_NAME ('662.step',
    '2021-12-06T13:00:09',
    ( '' ),
    ( '' ),
    'SwSTEP 2.0',
    'SolidWorks 2019',
    '' );
FILE_SCHEMA (( 'CONFIG_CONTROL_DESIGN' ));
ENDSEC;

DATA;
#1 = DIRECTION ( 'NONE',  ( -3.491481338843133355E-15, 1.224646799147353207E-16, -1.000000000000000000 ) ) ;
#2 = FACE_BOUND ( 'NONE', #128, .T. ) ;
#3 = APPROVAL ( #111, 'UNSPECIFIED' ) ;
#4 = PERSON_AND_ORGANIZATION_ROLE ( 'creator' ) ;
#5 = SECURITY_CLASSIFICATION_LEVEL ( 'unclassified' ) ;
#6 = CC_DESIGN_APPROVAL ( #35, ( #45 ) ) ;
#7 = COORDINATED_UNIVERSAL_TIME_OFFSET ( 1, 0, .AHEAD. ) ;
#8 = ORIENTED_EDGE ( 'NONE', *, *, #99, .T. ) ;
#9 = ORIENTED_EDGE ( 'NONE', *, *, #30, .F. ) ;
#10 = APPROVAL_DATE_TIME ( #127, #3 ) ;
#11 = FACE_OUTER_BOUND ( 'NONE', #66, .T. ) ;
#12 = DIRECTION ( 'NONE',  ( -3.491481338843133355E-15, 1.224646799147353207E-16, -1.000000000000000000 ) ) ;
#13 = CC_DESIGN_PERSON_AND_ORGANIZATION_ASSIGNMENT ( #57, #34, ( #21 ) ) ;
#14 = APPROVAL_PERSON_ORGANIZATION ( #119, #35, #20 ) ;
#15 = PERSON_AND_ORGANIZATION ( #90, #95 ) ;
#16 = APPROVAL_PERSON_ORGANIZATION ( #77, #3, #17 ) ;
#17 = APPROVAL_ROLE ( '' ) ;
#18 = DATE_AND_TIME ( #148, #78 ) ;
#19 =( NAMED_UNIT ( * ) SI_UNIT ( $, .STERADIAN. ) SOLID_ANGLE_UNIT ( ) );
#20 = APPROVAL_ROLE ( '' ) ;
#21 = SECURITY_CLASSIFICATION ( '', '', #5 ) ;
#22 = ADVANCED_FACE ( 'NONE', ( #168, #91 ), #52, .F. ) ;
#23 = AXIS2_PLACEMENT_3D ( 'NONE', #62, #137, #49 ) ;
#24 = EDGE_LOOP ( 'NONE', ( #41 ) ) ;
#25 = ORIENTED_EDGE ( 'NONE', *, *, #105, .F. ) ;
#26 = DATE_TIME_ROLE ( 'classification_date' ) ;
#27 = CYLINDRICAL_SURFACE ( 'NONE', #151, 25.00000000000000000 ) ;
#28 = CARTESIAN_POINT ( 'NONE',  ( -1.068957861474239634E-29, 3.749399456654644239E-31, -3.061616997868383043E-15 ) ) ;
#29 = CC_DESIGN_APPROVAL ( #3, ( #21 ) ) ;
#30 = EDGE_CURVE ( 'NONE', #58, #58, #155, .T. ) ;
#31 = AXIS2_PLACEMENT_3D ( 'NONE', #161, #121, #123 ) ;
#32 = CC_DESIGN_PERSON_AND_ORGANIZATION_ASSIGNMENT ( #146, #72, ( #135 ) ) ;
#33 = DIRECTION ( 'NONE',  ( -4.275831445896958607E-31, -1.000000000000000000, -1.224646799147353207E-16 ) ) ;
#34 = PERSON_AND_ORGANIZATION_ROLE ( 'classification_officer' ) ;
#35 = APPROVAL ( #147, 'UNSPECIFIED' ) ;
#36 = PERSON_AND_ORGANIZATION_ROLE ( 'creator' ) ;
#37 = CARTESIAN_POINT ( 'NONE',  ( 3.491481338843133355E-15, 6.500000000000000000, 1.000000000000000000 ) ) ;
#38 = ADVANCED_BREP_SHAPE_REPRESENTATION ( '662', ( #97, #31 ), #73 ) ;
#39 = AXIS2_PLACEMENT_3D ( 'NONE', #28, #43, #153 ) ;
#40 = FACE_BOUND ( 'NONE', #50, .T. ) ;
#41 = ORIENTED_EDGE ( 'NONE', *, *, #99, .F. ) ;
#42 = DIRECTION ( 'NONE',  ( 4.275831445896958607E-31, 1.000000000000000000, 1.224646799147353207E-16 ) ) ;
#43 = DIRECTION ( 'NONE',  ( -3.491481338843133355E-15, 1.224646799147353207E-16, -1.000000000000000000 ) ) ;
#44 = LOCAL_TIME ( 14, 0, 9.000000000000000000, #132 ) ;
#45 = PRODUCT_DEFINITION ( 'UNKNOWN', '', #135, #85 ) ;
#46 = CARTESIAN_POINT ( 'NONE',  ( 0.0000000000000000000, 25.00000000000000000, 0.0000000000000000000 ) ) ;
#47 = APPROVAL_DATE_TIME ( #59, #35 ) ;
#48 = PERSON_AND_ORGANIZATION ( #90, #95 ) ;
#49 = DIRECTION ( 'NONE',  ( 4.275831445896958607E-31, 1.000000000000000000, 1.224646799147353207E-16 ) ) ;
#50 = EDGE_LOOP ( 'NONE', ( #9 ) ) ;
#51 = ADVANCED_FACE ( 'NONE', ( #11, #40 ), #114, .T. ) ;
#52 = CYLINDRICAL_SURFACE ( 'NONE', #23, 6.500000000000000000 ) ;
#53 = CARTESIAN_POINT ( 'NONE',  ( 3.491481338843129805E-15, 6.500000000000000000, 0.9999999999999988898 ) ) ;
#54 = AXIS2_PLACEMENT_3D ( 'NONE', #76, #125, #65 ) ;
#55 = VERTEX_POINT ( 'NONE', #46 ) ;
#56 = ADVANCED_FACE ( 'NONE', ( #106, #126 ), #27, .T. ) ;
#57 = PERSON_AND_ORGANIZATION ( #90, #95 ) ;
#58 = VERTEX_POINT ( 'NONE', #88 ) ;
#59 = DATE_AND_TIME ( #162, #44 ) ;
#60 = DATE_AND_TIME ( #163, #98 ) ;
#61 = CC_DESIGN_DATE_AND_TIME_ASSIGNMENT ( #166, #26, ( #21 ) ) ;
#62 = CARTESIAN_POINT ( 'NONE',  ( 0.0000000000000000000, 0.0000000000000000000, 0.0000000000000000000 ) ) ;
#63 = CALENDAR_DATE ( 2021, 6, 12 ) ;
#64 = LOCAL_TIME ( 14, 0, 9.000000000000000000, #141 ) ;
#65 = DIRECTION ( 'NONE',  ( 4.275831445896958607E-31, 1.000000000000000000, 1.224646799147353207E-16 ) ) ;
#66 = EDGE_LOOP ( 'NONE', ( #149 ) ) ;
#67 = SHAPE_DEFINITION_REPRESENTATION ( #167, #38 ) ;
#68 = CC_DESIGN_APPROVAL ( #79, ( #135 ) ) ;
#69 = PLANE ( 'NONE',  #92 ) ;
#70 = APPLICATION_CONTEXT ( 'configuration controlled 3d designs of mechanical parts and assemblies' ) ;
#71 = COORDINATED_UNIVERSAL_TIME_OFFSET ( 1, 0, .AHEAD. ) ;
#72 = PERSON_AND_ORGANIZATION_ROLE ( 'design_supplier' ) ;
#73 =( GEOMETRIC_REPRESENTATION_CONTEXT ( 3 ) GLOBAL_UNCERTAINTY_ASSIGNED_CONTEXT ( ( #157 ) ) GLOBAL_UNIT_ASSIGNED_CONTEXT ( ( #101, #87, #19 ) ) REPRESENTATION_CONTEXT ( 'NONE', 'WORKASPACE' ) );
#74 = CARTESIAN_POINT ( 'NONE',  ( 3.491481338843133355E-15, 25.00000000000000000, 1.000000000000000000 ) ) ;
#75 = CARTESIAN_POINT ( 'NONE',  ( 3.491481338843130200E-15, -1.224646799147352221E-16, 0.9999999999999991118 ) ) ;
#76 = CARTESIAN_POINT ( 'NONE',  ( -2.779290439833023007E-30, 9.748438587302075546E-32, -7.960204194457795477E-16 ) ) ;
#77 = PERSON_AND_ORGANIZATION ( #90, #95 ) ;
#78 = LOCAL_TIME ( 14, 0, 9.000000000000000000, #71 ) ;
#79 = APPROVAL ( #144, 'UNSPECIFIED' ) ;
#80 = ORIENTED_EDGE ( 'NONE', *, *, #136, .F. ) ;
#81 = CALENDAR_DATE ( 2021, 6, 12 ) ;
#82 = EDGE_LOOP ( 'NONE', ( #107 ) ) ;
#83 = CARTESIAN_POINT ( 'NONE',  ( 3.491481338843122706E-15, -1.224646799147349509E-16, 0.9999999999999970024 ) ) ;
#84 = AXIS2_PLACEMENT_3D ( 'NONE', #83, #12, #96 ) ;
#85 = DESIGN_CONTEXT ( 'detailed design', #70, 'design' ) ;
#86 = APPLICATION_PROTOCOL_DEFINITION ( 'international standard', 'config_control_design', 1994, #70 ) ;
#87 =( NAMED_UNIT ( * ) PLANE_ANGLE_UNIT ( ) SI_UNIT ( $, .RADIAN. ) );
#88 = CARTESIAN_POINT ( 'NONE',  ( 0.0000000000000000000, 6.500000000000000000, 0.0000000000000000000 ) ) ;
#89 = APPROVAL_DATE_TIME ( #18, #79 ) ;
#90 = PERSON ( 'UNSPECIFIED', 'UNSPECIFIED', 'UNSPECIFIED', ('UNSPECIFIED'), ('UNSPECIFIED'), ('UNSPECIFIED') ) ;
#91 = FACE_OUTER_BOUND ( 'NONE', #24, .T. ) ;
#92 = AXIS2_PLACEMENT_3D ( 'NONE', #53, #100, #33 ) ;
#93 = DIRECTION ( 'NONE',  ( 4.275831445896958607E-31, 1.000000000000000000, 1.224646799147353207E-16 ) ) ;
#94 = CARTESIAN_POINT ( 'NONE',  ( -3.955144087454686842E-30, 6.500000000000000000, -1.132798289211301895E-15 ) ) ;
#95 = ORGANIZATION ( 'UNSPECIFIED', 'UNSPECIFIED', '' ) ;
#96 = DIRECTION ( 'NONE',  ( 4.314083075427408311E-31, 1.000000000000000000, 1.214306433183764966E-16 ) ) ;
#97 = MANIFOLD_SOLID_BREP ( 'Corps-Déplacer/Copier1', #129 ) ;
#98 = LOCAL_TIME ( 14, 0, 9.000000000000000000, #7 ) ;
#99 = EDGE_CURVE ( 'NONE', #160, #160, #108, .T. ) ;
#100 = DIRECTION ( 'NONE',  ( 3.491481338843133355E-15, -1.224646799147353207E-16, 1.000000000000000000 ) ) ;
#101 =( LENGTH_UNIT ( ) NAMED_UNIT ( * ) SI_UNIT ( .MILLI., .METRE. ) );
#102 = APPLICATION_PROTOCOL_DEFINITION ( 'international standard', 'config_control_design', 1994, #154 ) ;
#103 = PERSON_AND_ORGANIZATION ( #90, #95 ) ;
#104 = APPROVAL_ROLE ( '' ) ;
#105 = EDGE_CURVE ( 'NONE', #112, #112, #138, .T. ) ;
#106 = FACE_OUTER_BOUND ( 'NONE', #164, .T. ) ;
#107 = ORIENTED_EDGE ( 'NONE', *, *, #30, .T. ) ;
#108 = CIRCLE ( 'NONE', #122, 6.500000000000000000 ) ;
#109 = DIRECTION ( 'NONE',  ( -3.491481338843133355E-15, 1.224646799147353207E-16, -1.000000000000000000 ) ) ;
#110 = CC_DESIGN_PERSON_AND_ORGANIZATION_ASSIGNMENT ( #103, #36, ( #45 ) ) ;
#111 = APPROVAL_STATUS ( 'not_yet_approved' ) ;
#112 = VERTEX_POINT ( 'NONE', #74 ) ;
#113 = PERSON_AND_ORGANIZATION ( #90, #95 ) ;
#114 = PLANE ( 'NONE',  #118 ) ;
#115 = LOCAL_TIME ( 14, 0, 9.000000000000000000, #143 ) ;
#116 = CARTESIAN_POINT ( 'NONE',  ( 0.0000000000000000000, 0.0000000000000000000, 0.0000000000000000000 ) ) ;
#117 = DIRECTION ( 'NONE',  ( 4.740750632337811128E-31, 1.000000000000000000, 1.334402673828313093E-16 ) ) ;
#118 = AXIS2_PLACEMENT_3D ( 'NONE', #94, #140, #93 ) ;
#119 = PERSON_AND_ORGANIZATION ( #90, #95 ) ;
#120 = DATE_TIME_ROLE ( 'creation_date' ) ;
#121 = DIRECTION ( 'NONE',  ( 0.0000000000000000000, 0.0000000000000000000, 1.000000000000000000 ) ) ;
#122 = AXIS2_PLACEMENT_3D ( 'NONE', #75, #109, #117 ) ;
#123 = DIRECTION ( 'NONE',  ( 1.000000000000000000, 0.0000000000000000000, 0.0000000000000000000 ) ) ;
#124 = EDGE_LOOP ( 'NONE', ( #25 ) ) ;
#125 = DIRECTION ( 'NONE',  ( -3.491481338843133355E-15, 1.224646799147353207E-16, -1.000000000000000000 ) ) ;
#126 = FACE_OUTER_BOUND ( 'NONE', #142, .T. ) ;
#127 = DATE_AND_TIME ( #81, #115 ) ;
#128 = EDGE_LOOP ( 'NONE', ( #8 ) ) ;
#129 = CLOSED_SHELL ( 'NONE', ( #51, #56, #158, #22 ) ) ;
#130 = FACE_OUTER_BOUND ( 'NONE', #124, .T. ) ;
#131 = CC_DESIGN_PERSON_AND_ORGANIZATION_ASSIGNMENT ( #15, #4, ( #135 ) ) ;
#132 = COORDINATED_UNIVERSAL_TIME_OFFSET ( 1, 0, .AHEAD. ) ;
#133 = CC_DESIGN_PERSON_AND_ORGANIZATION_ASSIGNMENT ( #113, #134, ( #165 ) ) ;
#134 = PERSON_AND_ORGANIZATION_ROLE ( 'design_owner' ) ;
#135 = PRODUCT_DEFINITION_FORMATION_WITH_SPECIFIED_SOURCE ( 'ANY', '', #165, .NOT_KNOWN. ) ;
#136 = EDGE_CURVE ( 'NONE', #55, #55, #169, .T. ) ;
#137 = DIRECTION ( 'NONE',  ( -3.491481338843133355E-15, 1.224646799147353207E-16, -1.000000000000000000 ) ) ;
#138 = CIRCLE ( 'NONE', #84, 25.00000000000000000 ) ;
#139 = CC_DESIGN_DATE_AND_TIME_ASSIGNMENT ( #60, #120, ( #45 ) ) ;
#140 = DIRECTION ( 'NONE',  ( -3.491481338843133355E-15, 1.224646799147353207E-16, -1.000000000000000000 ) ) ;
#141 = COORDINATED_UNIVERSAL_TIME_OFFSET ( 1, 0, .AHEAD. ) ;
#142 = EDGE_LOOP ( 'NONE', ( #80 ) ) ;
#143 = COORDINATED_UNIVERSAL_TIME_OFFSET ( 1, 0, .AHEAD. ) ;
#144 = APPROVAL_STATUS ( 'not_yet_approved' ) ;
#145 = APPROVAL_PERSON_ORGANIZATION ( #48, #79, #104 ) ;
#146 = PERSON_AND_ORGANIZATION ( #90, #95 ) ;
#147 = APPROVAL_STATUS ( 'not_yet_approved' ) ;
#148 = CALENDAR_DATE ( 2021, 6, 12 ) ;
#149 = ORIENTED_EDGE ( 'NONE', *, *, #136, .T. ) ;
#150 = PRODUCT_RELATED_PRODUCT_CATEGORY ( 'detail', '', ( #165 ) ) ;
#151 = AXIS2_PLACEMENT_3D ( 'NONE', #116, #1, #42 ) ;
#152 = ORIENTED_EDGE ( 'NONE', *, *, #105, .T. ) ;
#153 = DIRECTION ( 'NONE',  ( 4.275831445896958607E-31, 1.000000000000000000, 1.224646799147353207E-16 ) ) ;
#154 = APPLICATION_CONTEXT ( 'configuration controlled 3d designs of mechanical parts and assemblies' ) ;
#155 = CIRCLE ( 'NONE', #54, 6.500000000000000000 ) ;
#156 = CC_DESIGN_SECURITY_CLASSIFICATION ( #21, ( #135 ) ) ;
#157 = UNCERTAINTY_MEASURE_WITH_UNIT (LENGTH_MEASURE( 1.000000000000000082E-05 ), #101, 'distance_accuracy_value', 'NONE');
#158 = ADVANCED_FACE ( 'NONE', ( #2, #130 ), #69, .T. ) ;
#159 = MECHANICAL_CONTEXT ( 'NONE', #154, 'mechanical' ) ;
#160 = VERTEX_POINT ( 'NONE', #37 ) ;
#161 = CARTESIAN_POINT ( 'NONE',  ( 0.0000000000000000000, 0.0000000000000000000, 0.0000000000000000000 ) ) ;
#162 = CALENDAR_DATE ( 2021, 6, 12 ) ;
#163 = CALENDAR_DATE ( 2021, 6, 12 ) ;
#164 = EDGE_LOOP ( 'NONE', ( #152 ) ) ;
#165 = PRODUCT ( '662', '662', '', ( #159 ) ) ;
#166 = DATE_AND_TIME ( #63, #64 ) ;
#167 = PRODUCT_DEFINITION_SHAPE ( 'NONE', 'NONE',  #45 ) ;
#168 = FACE_OUTER_BOUND ( 'NONE', #82, .T. ) ;
#169 = CIRCLE ( 'NONE', #39, 25.00000000000000000 ) ;
ENDSEC;
END-ISO-10303-21;
