ISO-10303-21;
HEADER;
FILE_DESCRIPTION (( 'STEP AP203' ),
    '1' );
FILE_NAME ('661.step',
    '2021-12-06T13:00:08',
    ( '' ),
    ( '' ),
    'SwSTEP 2.0',
    'SolidWorks 2019',
    '' );
FILE_SCHEMA (( 'CONFIG_CONTROL_DESIGN' ));
ENDSEC;

DATA;
#1 = DIRECTION ( 'NONE',  ( 0.0000000000000000000, 0.0000000000000000000, 1.000000000000000000 ) ) ;
#2 = SECURITY_CLASSIFICATION_LEVEL ( 'unclassified' ) ;
#3 = CC_DESIGN_PERSON_AND_ORGANIZATION_ASSIGNMENT ( #157, #69, ( #142 ) ) ;
#4 = DIRECTION ( 'NONE',  ( 4.275831445896958607E-31, 1.000000000000000000, 1.224646799147353207E-16 ) ) ;
#5 = APPLICATION_CONTEXT ( 'configuration controlled 3d designs of mechanical parts and assemblies' ) ;
#6 = DIRECTION ( 'NONE',  ( -3.491481338843133355E-15, 1.224646799147353207E-16, -1.000000000000000000 ) ) ;
#7 = CC_DESIGN_PERSON_AND_ORGANIZATION_ASSIGNMENT ( #84, #136, ( #100 ) ) ;
#8 = EDGE_LOOP ( 'NONE', ( #20 ) ) ;
#9 = CC_DESIGN_SECURITY_CLASSIFICATION ( #48, ( #100 ) ) ;
#10 = CALENDAR_DATE ( 2021, 6, 12 ) ;
#11 = VERTEX_POINT ( 'NONE', #122 ) ;
#12 = APPROVAL ( #107, 'UNSPECIFIED' ) ;
#13 = AXIS2_PLACEMENT_3D ( 'NONE', #126, #6, #114 ) ;
#14 = CARTESIAN_POINT ( 'NONE',  ( 2.793185071074507079E-15, 25.00000000000000000, 0.8000000000000000444 ) ) ;
#15 = DIRECTION ( 'NONE',  ( -4.275831445896958607E-31, -1.000000000000000000, -1.224646799147353207E-16 ) ) ;
#16 = PERSON_AND_ORGANIZATION_ROLE ( 'classification_officer' ) ;
#17 = CC_DESIGN_PERSON_AND_ORGANIZATION_ASSIGNMENT ( #101, #111, ( #100 ) ) ;
#18 = AXIS2_PLACEMENT_3D ( 'NONE', #41, #73, #72 ) ;
#19 = EDGE_LOOP ( 'NONE', ( #53 ) ) ;
#20 = ORIENTED_EDGE ( 'NONE', *, *, #38, .F. ) ;
#21 = DESIGN_CONTEXT ( 'detailed design', #118, 'design' ) ;
#22 = EDGE_LOOP ( 'NONE', ( #104 ) ) ;
#23 = EDGE_CURVE ( 'NONE', #28, #28, #137, .T. ) ;
#24 = CIRCLE ( 'NONE', #152, 25.00000000000000000 ) ;
#25 = CARTESIAN_POINT ( 'NONE',  ( 0.0000000000000000000, 0.0000000000000000000, 0.0000000000000000000 ) ) ;
#26 = APPROVAL_ROLE ( '' ) ;
#27 = CC_DESIGN_APPROVAL ( #129, ( #142 ) ) ;
#28 = VERTEX_POINT ( 'NONE', #14 ) ;
#29 = APPLICATION_PROTOCOL_DEFINITION ( 'international standard', 'config_control_design', 1994, #5 ) ;
#30 = CALENDAR_DATE ( 2021, 6, 12 ) ;
#31 = LOCAL_TIME ( 14, 0, 8.000000000000000000, #59 ) ;
#32 = COORDINATED_UNIVERSAL_TIME_OFFSET ( 1, 0, .AHEAD. ) ;
#33 = EDGE_CURVE ( 'NONE', #11, #11, #24, .T. ) ;
#34 = CIRCLE ( 'NONE', #58, 6.500000000000000000 ) ;
#35 = FACE_BOUND ( 'NONE', #103, .T. ) ;
#36 = MANIFOLD_SOLID_BREP ( 'Corps-Déplacer/Copier1', #145 ) ;
#37 = PERSON_AND_ORGANIZATION ( #96, #149 ) ;
#38 = EDGE_CURVE ( 'NONE', #143, #143, #34, .T. ) ;
#39 = LOCAL_TIME ( 14, 0, 8.000000000000000000, #64 ) ;
#40 = DIRECTION ( 'NONE',  ( 4.148156803295584847E-31, 1.000000000000000000, 1.167602339599773987E-16 ) ) ;
#41 = CARTESIAN_POINT ( 'NONE',  ( 0.0000000000000000000, 0.0000000000000000000, 0.0000000000000000000 ) ) ;
#42 = ADVANCED_BREP_SHAPE_REPRESENTATION ( '661', ( #36, #66 ), #140 ) ;
#43 = DIRECTION ( 'NONE',  ( 4.275831445896958607E-31, 1.000000000000000000, 1.224646799147353207E-16 ) ) ;
#44 = APPROVAL_STATUS ( 'not_yet_approved' ) ;
#45 = PERSON_AND_ORGANIZATION ( #96, #149 ) ;
#46 = PRODUCT_DEFINITION_SHAPE ( 'NONE', 'NONE',  #142 ) ;
#47 = CARTESIAN_POINT ( 'NONE',  ( 2.793185071074503134E-15, 6.500000000000000000, 0.7999999999999989342 ) ) ;
#48 = SECURITY_CLASSIFICATION ( '', '', #2 ) ;
#49 = PERSON_AND_ORGANIZATION ( #96, #149 ) ;
#50 = EDGE_LOOP ( 'NONE', ( #128 ) ) ;
#51 = DIRECTION ( 'NONE',  ( 4.275831445896958607E-31, 1.000000000000000000, 1.224646799147353207E-16 ) ) ;
#52 = CALENDAR_DATE ( 2021, 6, 12 ) ;
#53 = ORIENTED_EDGE ( 'NONE', *, *, #38, .T. ) ;
#54 = COORDINATED_UNIVERSAL_TIME_OFFSET ( 1, 0, .AHEAD. ) ;
#55 = AXIS2_PLACEMENT_3D ( 'NONE', #57, #121, #43 ) ;
#56 = CC_DESIGN_PERSON_AND_ORGANIZATION_ASSIGNMENT ( #49, #16, ( #48 ) ) ;
#57 = CARTESIAN_POINT ( 'NONE',  ( -2.779290439833023007E-30, 9.748438587302075546E-32, -7.960204194457795477E-16 ) ) ;
#58 = AXIS2_PLACEMENT_3D ( 'NONE', #127, #147, #40 ) ;
#59 = COORDINATED_UNIVERSAL_TIME_OFFSET ( 1, 0, .AHEAD. ) ;
#60 = DATE_AND_TIME ( #158, #81 ) ;
#61 = FACE_OUTER_BOUND ( 'NONE', #50, .T. ) ;
#62 = FACE_OUTER_BOUND ( 'NONE', #115, .T. ) ;
#63 = UNCERTAINTY_MEASURE_WITH_UNIT (LENGTH_MEASURE( 1.000000000000000082E-05 ), #153, 'distance_accuracy_value', 'NONE');
#64 = COORDINATED_UNIVERSAL_TIME_OFFSET ( 1, 0, .AHEAD. ) ;
#65 = DIRECTION ( 'NONE',  ( -3.491481338843133355E-15, 1.224646799147353207E-16, -1.000000000000000000 ) ) ;
#66 = AXIS2_PLACEMENT_3D ( 'NONE', #91, #1, #156 ) ;
#67 = DATE_AND_TIME ( #10, #39 ) ;
#68 = SHAPE_DEFINITION_REPRESENTATION ( #46, #42 ) ;
#69 = PERSON_AND_ORGANIZATION_ROLE ( 'creator' ) ;
#70 = PERSON_AND_ORGANIZATION_ROLE ( 'design_owner' ) ;
#71 = ADVANCED_FACE ( 'NONE', ( #86, #35 ), #139, .T. ) ;
#72 = DIRECTION ( 'NONE',  ( 4.275831445896958607E-31, 1.000000000000000000, 1.224646799147353207E-16 ) ) ;
#73 = DIRECTION ( 'NONE',  ( -3.491481338843133355E-15, 1.224646799147353207E-16, -1.000000000000000000 ) ) ;
#74 = APPROVAL_ROLE ( '' ) ;
#75 = EDGE_LOOP ( 'NONE', ( #106 ) ) ;
#76 = APPROVAL_DATE_TIME ( #165, #12 ) ;
#77 = CARTESIAN_POINT ( 'NONE',  ( 2.793185071074496035E-15, -9.797174393178789173E-17, 0.7999999999999970468 ) ) ;
#78 = DATE_TIME_ROLE ( 'classification_date' ) ;
#79 =( NAMED_UNIT ( * ) SI_UNIT ( $, .STERADIAN. ) SOLID_ANGLE_UNIT ( ) );
#80 = APPROVAL_DATE_TIME ( #144, #129 ) ;
#81 = LOCAL_TIME ( 14, 0, 8.000000000000000000, #32 ) ;
#82 = MECHANICAL_CONTEXT ( 'NONE', #5, 'mechanical' ) ;
#83 = FACE_OUTER_BOUND ( 'NONE', #163, .T. ) ;
#84 = PERSON_AND_ORGANIZATION ( #96, #149 ) ;
#85 = LOCAL_TIME ( 14, 0, 8.000000000000000000, #54 ) ;
#86 = FACE_OUTER_BOUND ( 'NONE', #22, .T. ) ;
#87 = CARTESIAN_POINT ( 'NONE',  ( -1.068957861474239634E-29, 3.749399456654644239E-31, -3.061616997868383043E-15 ) ) ;
#88 = APPROVAL ( #44, 'UNSPECIFIED' ) ;
#89 = APPROVAL_PERSON_ORGANIZATION ( #155, #88, #74 ) ;
#90 = ORIENTED_EDGE ( 'NONE', *, *, #33, .F. ) ;
#91 = CARTESIAN_POINT ( 'NONE',  ( 0.0000000000000000000, 0.0000000000000000000, 0.0000000000000000000 ) ) ;
#92 = PRODUCT ( '661', '661', '', ( #82 ) ) ;
#93 = ADVANCED_FACE ( 'NONE', ( #62, #117 ), #161, .F. ) ;
#94 = AXIS2_PLACEMENT_3D ( 'NONE', #25, #148, #4 ) ;
#95 = PLANE ( 'NONE',  #112 ) ;
#96 = PERSON ( 'UNSPECIFIED', 'UNSPECIFIED', 'UNSPECIFIED', ('UNSPECIFIED'), ('UNSPECIFIED'), ('UNSPECIFIED') ) ;
#97 = APPROVAL_STATUS ( 'not_yet_approved' ) ;
#98 = CARTESIAN_POINT ( 'NONE',  ( 0.0000000000000000000, 6.500000000000000000, 0.0000000000000000000 ) ) ;
#99 = CC_DESIGN_DATE_AND_TIME_ASSIGNMENT ( #120, #123, ( #142 ) ) ;
#100 = PRODUCT_DEFINITION_FORMATION_WITH_SPECIFIED_SOURCE ( 'ANY', '', #92, .NOT_KNOWN. ) ;
#101 = PERSON_AND_ORGANIZATION ( #96, #149 ) ;
#102 = ADVANCED_FACE ( 'NONE', ( #61, #83 ), #132, .T. ) ;
#103 = EDGE_LOOP ( 'NONE', ( #138 ) ) ;
#104 = ORIENTED_EDGE ( 'NONE', *, *, #33, .T. ) ;
#105 = CIRCLE ( 'NONE', #55, 6.500000000000000000 ) ;
#106 = ORIENTED_EDGE ( 'NONE', *, *, #23, .F. ) ;
#107 = APPROVAL_STATUS ( 'not_yet_approved' ) ;
#108 = CALENDAR_DATE ( 2021, 6, 12 ) ;
#109 = CARTESIAN_POINT ( 'NONE',  ( 2.793185071074507079E-15, 6.500000000000000000, 0.8000000000000000444 ) ) ;
#110 = COORDINATED_UNIVERSAL_TIME_OFFSET ( 1, 0, .AHEAD. ) ;
#111 = PERSON_AND_ORGANIZATION_ROLE ( 'design_supplier' ) ;
#112 = AXIS2_PLACEMENT_3D ( 'NONE', #47, #134, #15 ) ;
#113 = EDGE_CURVE ( 'NONE', #169, #169, #105, .T. ) ;
#114 = DIRECTION ( 'NONE',  ( 4.275831445896958607E-31, 1.000000000000000000, 1.224646799147353207E-16 ) ) ;
#115 = EDGE_LOOP ( 'NONE', ( #141 ) ) ;
#116 = AXIS2_PLACEMENT_3D ( 'NONE', #77, #65, #119 ) ;
#117 = FACE_OUTER_BOUND ( 'NONE', #8, .T. ) ;
#118 = APPLICATION_CONTEXT ( 'configuration controlled 3d designs of mechanical parts and assemblies' ) ;
#119 = DIRECTION ( 'NONE',  ( 4.314083075427408311E-31, 1.000000000000000000, 1.214306433183764966E-16 ) ) ;
#120 = DATE_AND_TIME ( #30, #31 ) ;
#121 = DIRECTION ( 'NONE',  ( -3.491481338843133355E-15, 1.224646799147353207E-16, -1.000000000000000000 ) ) ;
#122 = CARTESIAN_POINT ( 'NONE',  ( 0.0000000000000000000, 25.00000000000000000, 0.0000000000000000000 ) ) ;
#123 = DATE_TIME_ROLE ( 'creation_date' ) ;
#124 = APPROVAL_DATE_TIME ( #60, #88 ) ;
#125 = CC_DESIGN_APPROVAL ( #88, ( #100 ) ) ;
#126 = CARTESIAN_POINT ( 'NONE',  ( -3.955144087454686842E-30, 6.500000000000000000, -1.132798289211301895E-15 ) ) ;
#127 = CARTESIAN_POINT ( 'NONE',  ( 2.793185071074504318E-15, -9.797174393178816290E-17, 0.7999999999999992673 ) ) ;
#128 = ORIENTED_EDGE ( 'NONE', *, *, #23, .T. ) ;
#129 = APPROVAL ( #97, 'UNSPECIFIED' ) ;
#130 = PERSON_AND_ORGANIZATION ( #96, #149 ) ;
#131 = FACE_BOUND ( 'NONE', #19, .T. ) ;
#132 = CYLINDRICAL_SURFACE ( 'NONE', #18, 25.00000000000000000 ) ;
#133 = CC_DESIGN_PERSON_AND_ORGANIZATION_ASSIGNMENT ( #130, #70, ( #92 ) ) ;
#134 = DIRECTION ( 'NONE',  ( 3.491481338843133355E-15, -1.224646799147353207E-16, 1.000000000000000000 ) ) ;
#135 = APPROVAL_PERSON_ORGANIZATION ( #37, #12, #151 ) ;
#136 = PERSON_AND_ORGANIZATION_ROLE ( 'creator' ) ;
#137 = CIRCLE ( 'NONE', #116, 25.00000000000000000 ) ;
#138 = ORIENTED_EDGE ( 'NONE', *, *, #113, .F. ) ;
#139 = PLANE ( 'NONE',  #13 ) ;
#140 =( GEOMETRIC_REPRESENTATION_CONTEXT ( 3 ) GLOBAL_UNCERTAINTY_ASSIGNED_CONTEXT ( ( #63 ) ) GLOBAL_UNIT_ASSIGNED_CONTEXT ( ( #153, #154, #79 ) ) REPRESENTATION_CONTEXT ( 'NONE', 'WORKASPACE' ) );
#141 = ORIENTED_EDGE ( 'NONE', *, *, #113, .T. ) ;
#142 = PRODUCT_DEFINITION ( 'UNKNOWN', '', #100, #21 ) ;
#143 = VERTEX_POINT ( 'NONE', #109 ) ;
#144 = DATE_AND_TIME ( #108, #160 ) ;
#145 = CLOSED_SHELL ( 'NONE', ( #71, #102, #146, #93 ) ) ;
#146 = ADVANCED_FACE ( 'NONE', ( #131, #167 ), #95, .T. ) ;
#147 = DIRECTION ( 'NONE',  ( -3.491481338843133355E-15, 1.224646799147353207E-16, -1.000000000000000000 ) ) ;
#148 = DIRECTION ( 'NONE',  ( -3.491481338843133355E-15, 1.224646799147353207E-16, -1.000000000000000000 ) ) ;
#149 = ORGANIZATION ( 'UNSPECIFIED', 'UNSPECIFIED', '' ) ;
#150 = DIRECTION ( 'NONE',  ( -3.491481338843133355E-15, 1.224646799147353207E-16, -1.000000000000000000 ) ) ;
#151 = APPROVAL_ROLE ( '' ) ;
#152 = AXIS2_PLACEMENT_3D ( 'NONE', #87, #150, #51 ) ;
#153 =( LENGTH_UNIT ( ) NAMED_UNIT ( * ) SI_UNIT ( .MILLI., .METRE. ) );
#154 =( NAMED_UNIT ( * ) PLANE_ANGLE_UNIT ( ) SI_UNIT ( $, .RADIAN. ) );
#155 = PERSON_AND_ORGANIZATION ( #96, #149 ) ;
#156 = DIRECTION ( 'NONE',  ( 1.000000000000000000, 0.0000000000000000000, 0.0000000000000000000 ) ) ;
#157 = PERSON_AND_ORGANIZATION ( #96, #149 ) ;
#158 = CALENDAR_DATE ( 2021, 6, 12 ) ;
#159 = PRODUCT_RELATED_PRODUCT_CATEGORY ( 'detail', '', ( #92 ) ) ;
#160 = LOCAL_TIME ( 14, 0, 8.000000000000000000, #110 ) ;
#161 = CYLINDRICAL_SURFACE ( 'NONE', #94, 6.500000000000000000 ) ;
#162 = CC_DESIGN_DATE_AND_TIME_ASSIGNMENT ( #67, #78, ( #48 ) ) ;
#163 = EDGE_LOOP ( 'NONE', ( #90 ) ) ;
#164 = CC_DESIGN_APPROVAL ( #12, ( #48 ) ) ;
#165 = DATE_AND_TIME ( #52, #85 ) ;
#166 = APPROVAL_PERSON_ORGANIZATION ( #45, #129, #26 ) ;
#167 = FACE_OUTER_BOUND ( 'NONE', #75, .T. ) ;
#168 = APPLICATION_PROTOCOL_DEFINITION ( 'international standard', 'config_control_design', 1994, #118 ) ;
#169 = VERTEX_POINT ( 'NONE', #98 ) ;
ENDSEC;
END-ISO-10303-21;
