ISO-10303-21;
HEADER;
FILE_DESCRIPTION (( 'STEP AP203' ),
    '1' );
FILE_NAME ('659.step',
    '2021-12-06T13:00:08',
    ( '' ),
    ( '' ),
    'SwSTEP 2.0',
    'SolidWorks 2019',
    '' );
FILE_SCHEMA (( 'CONFIG_CONTROL_DESIGN' ));
ENDSEC;

DATA;
#1 = CARTESIAN_POINT ( 'NONE',  ( 1.047444401652900169E-15, 6.499999999999999112, 0.2999999999999886091 ) ) ;
#2 = EDGE_LOOP ( 'NONE', ( #115 ) ) ;
#3 = AXIS2_PLACEMENT_3D ( 'NONE', #1, #93, #131 ) ;
#4 = ORIENTED_EDGE ( 'NONE', *, *, #126, .T. ) ;
#5 = APPROVAL_STATUS ( 'not_yet_approved' ) ;
#6 = CARTESIAN_POINT ( 'NONE',  ( 1.047444401652912002E-15, -3.673940397441962247E-16, 0.2999999999999919398 ) ) ;
#7 = APPROVAL ( #40, 'UNSPECIFIED' ) ;
#8 = DIRECTION ( 'NONE',  ( -3.491481338843133355E-15, 1.224646799147353651E-15, -1.000000000000000000 ) ) ;
#9 = LOCAL_TIME ( 14, 0, 8.000000000000000000, #166 ) ;
#10 = APPROVAL_PERSON_ORGANIZATION ( #167, #7, #100 ) ;
#11 = DATE_AND_TIME ( #92, #98 ) ;
#12 = SHAPE_DEFINITION_REPRESENTATION ( #60, #42 ) ;
#13 = CARTESIAN_POINT ( 'NONE',  ( 0.0000000000000000000, 0.0000000000000000000, 0.0000000000000000000 ) ) ;
#14 = CIRCLE ( 'NONE', #135, 6.500000000000000000 ) ;
#15 = ADVANCED_FACE ( 'NONE', ( #114, #51 ), #102, .T. ) ;
#16 = DIRECTION ( 'NONE',  ( 4.275831445896961059E-30, 1.000000000000000000, 1.224646799147353848E-15 ) ) ;
#17 = EDGE_LOOP ( 'NONE', ( #55 ) ) ;
#18 = CARTESIAN_POINT ( 'NONE',  ( -3.955144087454688384E-29, 6.500000000000000000, -1.132798289211302329E-14 ) ) ;
#19 = PRODUCT ( '659', '659', '', ( #74 ) ) ;
#20 = CARTESIAN_POINT ( 'NONE',  ( 0.0000000000000000000, 25.00000000000000000, 0.0000000000000000000 ) ) ;
#21 = FACE_OUTER_BOUND ( 'NONE', #17, .T. ) ;
#22 = CC_DESIGN_PERSON_AND_ORGANIZATION_ASSIGNMENT ( #150, #35, ( #19 ) ) ;
#23 = DIRECTION ( 'NONE',  ( -3.491481338843133355E-15, 1.224646799147353651E-15, -1.000000000000000000 ) ) ;
#24 = ADVANCED_FACE ( 'NONE', ( #141, #30 ), #142, .T. ) ;
#25 = CC_DESIGN_SECURITY_CLASSIFICATION ( #71, ( #32 ) ) ;
#26 = VERTEX_POINT ( 'NONE', #97 ) ;
#27 = COORDINATED_UNIVERSAL_TIME_OFFSET ( 1, 0, .AHEAD. ) ;
#28 = FACE_OUTER_BOUND ( 'NONE', #82, .T. ) ;
#29 = EDGE_LOOP ( 'NONE', ( #68 ) ) ;
#30 = FACE_BOUND ( 'NONE', #69, .T. ) ;
#31 = ORIENTED_EDGE ( 'NONE', *, *, #38, .T. ) ;
#32 = PRODUCT_DEFINITION_FORMATION_WITH_SPECIFIED_SOURCE ( 'ANY', '', #19, .NOT_KNOWN. ) ;
#33 = DIRECTION ( 'NONE',  ( 0.0000000000000000000, 0.0000000000000000000, 1.000000000000000000 ) ) ;
#34 = DIRECTION ( 'NONE',  ( -3.491481338843133355E-15, 1.224646799147353651E-15, -1.000000000000000000 ) ) ;
#35 = PERSON_AND_ORGANIZATION_ROLE ( 'design_owner' ) ;
#36 = CARTESIAN_POINT ( 'NONE',  ( 1.047444401652939612E-15, 25.00000000000000000, 0.2999999999999999334 ) ) ;
#37 = MANIFOLD_SOLID_BREP ( 'Corps-Déplacer/Copier1', #70 ) ;
#38 = EDGE_CURVE ( 'NONE', #123, #123, #101, .T. ) ;
#39 = CIRCLE ( 'NONE', #110, 6.499999999999999112 ) ;
#40 = APPROVAL_STATUS ( 'not_yet_approved' ) ;
#41 = APPROVAL ( #5, 'UNSPECIFIED' ) ;
#42 = ADVANCED_BREP_SHAPE_REPRESENTATION ( '659', ( #37, #65 ), #86 ) ;
#43 = APPROVAL ( #133, 'UNSPECIFIED' ) ;
#44 = PERSON_AND_ORGANIZATION_ROLE ( 'creator' ) ;
#45 = CARTESIAN_POINT ( 'NONE',  ( -1.068957861474240195E-28, 3.749399456654647164E-29, -3.061616997868384384E-14 ) ) ;
#46 = EDGE_LOOP ( 'NONE', ( #4 ) ) ;
#47 = APPLICATION_PROTOCOL_DEFINITION ( 'international standard', 'config_control_design', 1994, #138 ) ;
#48 = CALENDAR_DATE ( 2021, 6, 12 ) ;
#49 = CARTESIAN_POINT ( 'NONE',  ( 5.473822126268816683E-45, 6.500000000000000000, 0.0000000000000000000 ) ) ;
#50 = SECURITY_CLASSIFICATION_LEVEL ( 'unclassified' ) ;
#51 = FACE_OUTER_BOUND ( 'NONE', #85, .T. ) ;
#52 = CC_DESIGN_APPROVAL ( #41, ( #159 ) ) ;
#53 = APPROVAL_DATE_TIME ( #66, #43 ) ;
#54 = DIRECTION ( 'NONE',  ( 4.275831445896961059E-30, 1.000000000000000000, 1.224646799147353848E-15 ) ) ;
#55 = ORIENTED_EDGE ( 'NONE', *, *, #126, .F. ) ;
#56 = CALENDAR_DATE ( 2021, 6, 12 ) ;
#57 = CIRCLE ( 'NONE', #109, 25.00000000000000000 ) ;
#58 = APPLICATION_PROTOCOL_DEFINITION ( 'international standard', 'config_control_design', 1994, #63 ) ;
#59 = DIRECTION ( 'NONE',  ( -3.491481338843133355E-15, 1.224646799147353651E-15, -1.000000000000000000 ) ) ;
#60 = PRODUCT_DEFINITION_SHAPE ( 'NONE', 'NONE',  #159 ) ;
#61 = PRODUCT_RELATED_PRODUCT_CATEGORY ( 'detail', '', ( #19 ) ) ;
#62 = CARTESIAN_POINT ( 'NONE',  ( 1.047444401652832722E-15, -3.673940397441685159E-16, 0.2999999999999692912 ) ) ;
#63 = APPLICATION_CONTEXT ( 'configuration controlled 3d designs of mechanical parts and assemblies' ) ;
#64 = LOCAL_TIME ( 14, 0, 8.000000000000000000, #132 ) ;
#65 = AXIS2_PLACEMENT_3D ( 'NONE', #143, #33, #87 ) ;
#66 = DATE_AND_TIME ( #103, #9 ) ;
#67 = DIRECTION ( 'NONE',  ( -3.491481338843133355E-15, 1.224646799147353651E-15, -1.000000000000000000 ) ) ;
#68 = ORIENTED_EDGE ( 'NONE', *, *, #91, .T. ) ;
#69 = EDGE_LOOP ( 'NONE', ( #168 ) ) ;
#70 = CLOSED_SHELL ( 'NONE', ( #24, #72, #15, #78 ) ) ;
#71 = SECURITY_CLASSIFICATION ( '', '', #50 ) ;
#72 = ADVANCED_FACE ( 'NONE', ( #28, #81 ), #127, .T. ) ;
#73 = PERSON_AND_ORGANIZATION ( #116, #140 ) ;
#74 = MECHANICAL_CONTEXT ( 'NONE', #138, 'mechanical' ) ;
#75 = APPROVAL_PERSON_ORGANIZATION ( #73, #41, #88 ) ;
#76 = DIRECTION ( 'NONE',  ( 4.275831445896960358E-30, 1.000000000000000000, 1.224646799147353651E-15 ) ) ;
#77 = CYLINDRICAL_SURFACE ( 'NONE', #134, 6.499999999999999112 ) ;
#78 = ADVANCED_FACE ( 'NONE', ( #104, #21 ), #77, .F. ) ;
#79 = APPROVAL_DATE_TIME ( #128, #7 ) ;
#80 = PERSON_AND_ORGANIZATION ( #116, #140 ) ;
#81 = FACE_OUTER_BOUND ( 'NONE', #2, .T. ) ;
#82 = EDGE_LOOP ( 'NONE', ( #94 ) ) ;
#83 = DIRECTION ( 'NONE',  ( -3.491481338843133355E-15, 1.224646799147353651E-15, -1.000000000000000000 ) ) ;
#84 = ORIENTED_EDGE ( 'NONE', *, *, #152, .F. ) ;
#85 = EDGE_LOOP ( 'NONE', ( #84 ) ) ;
#86 =( GEOMETRIC_REPRESENTATION_CONTEXT ( 3 ) GLOBAL_UNCERTAINTY_ASSIGNED_CONTEXT ( ( #121 ) ) GLOBAL_UNIT_ASSIGNED_CONTEXT ( ( #119, #108, #95 ) ) REPRESENTATION_CONTEXT ( 'NONE', 'WORKASPACE' ) );
#87 = DIRECTION ( 'NONE',  ( 1.000000000000000000, 0.0000000000000000000, 0.0000000000000000000 ) ) ;
#88 = APPROVAL_ROLE ( '' ) ;
#89 = DATE_TIME_ROLE ( 'creation_date' ) ;
#90 = CC_DESIGN_APPROVAL ( #7, ( #71 ) ) ;
#91 = EDGE_CURVE ( 'NONE', #158, #158, #14, .T. ) ;
#92 = CALENDAR_DATE ( 2021, 6, 12 ) ;
#93 = DIRECTION ( 'NONE',  ( 3.491481338843133355E-15, -1.224646799147353651E-15, 1.000000000000000000 ) ) ;
#94 = ORIENTED_EDGE ( 'NONE', *, *, #152, .T. ) ;
#95 =( NAMED_UNIT ( * ) SI_UNIT ( $, .STERADIAN. ) SOLID_ANGLE_UNIT ( ) );
#96 = DATE_AND_TIME ( #48, #157 ) ;
#97 = CARTESIAN_POINT ( 'NONE',  ( 1.047444401652939612E-15, 6.499999999999999112, 0.2999999999999999334 ) ) ;
#98 = LOCAL_TIME ( 14, 0, 8.000000000000000000, #27 ) ;
#99 = COORDINATED_UNIVERSAL_TIME_OFFSET ( 1, 0, .AHEAD. ) ;
#100 = APPROVAL_ROLE ( '' ) ;
#101 = CIRCLE ( 'NONE', #153, 25.00000000000000000 ) ;
#102 = PLANE ( 'NONE',  #3 ) ;
#103 = CALENDAR_DATE ( 2021, 6, 12 ) ;
#104 = FACE_OUTER_BOUND ( 'NONE', #29, .T. ) ;
#105 = DATE_AND_TIME ( #56, #64 ) ;
#106 = PERSON_AND_ORGANIZATION_ROLE ( 'creator' ) ;
#107 = DIRECTION ( 'NONE',  ( 4.275564476539663594E-30, 1.000000000000000000, 1.225148454908620010E-15 ) ) ;
#108 =( NAMED_UNIT ( * ) PLANE_ANGLE_UNIT ( ) SI_UNIT ( $, .RADIAN. ) );
#109 = AXIS2_PLACEMENT_3D ( 'NONE', #62, #59, #107 ) ;
#110 = AXIS2_PLACEMENT_3D ( 'NONE', #6, #23, #147 ) ;
#111 = CALENDAR_DATE ( 2021, 6, 12 ) ;
#112 = PERSON_AND_ORGANIZATION ( #116, #140 ) ;
#113 = APPROVAL_ROLE ( '' ) ;
#114 = FACE_BOUND ( 'NONE', #46, .T. ) ;
#115 = ORIENTED_EDGE ( 'NONE', *, *, #38, .F. ) ;
#116 = PERSON ( 'UNSPECIFIED', 'UNSPECIFIED', 'UNSPECIFIED', ('UNSPECIFIED'), ('UNSPECIFIED'), ('UNSPECIFIED') ) ;
#117 = CC_DESIGN_DATE_AND_TIME_ASSIGNMENT ( #96, #89, ( #159 ) ) ;
#118 = VERTEX_POINT ( 'NONE', #36 ) ;
#119 =( LENGTH_UNIT ( ) NAMED_UNIT ( * ) SI_UNIT ( .MILLI., .METRE. ) );
#120 = APPROVAL_DATE_TIME ( #105, #41 ) ;
#121 = UNCERTAINTY_MEASURE_WITH_UNIT (LENGTH_MEASURE( 1.000000000000000082E-05 ), #119, 'distance_accuracy_value', 'NONE');
#122 = DIRECTION ( 'NONE',  ( 4.275831445896961059E-30, 1.000000000000000000, 1.224646799147353651E-15 ) ) ;
#123 = VERTEX_POINT ( 'NONE', #20 ) ;
#124 = CC_DESIGN_APPROVAL ( #43, ( #32 ) ) ;
#125 = DATE_TIME_ROLE ( 'classification_date' ) ;
#126 = EDGE_CURVE ( 'NONE', #26, #26, #39, .T. ) ;
#127 = CYLINDRICAL_SURFACE ( 'NONE', #160, 25.00000000000000000 ) ;
#128 = DATE_AND_TIME ( #111, #149 ) ;
#129 = DIRECTION ( 'NONE',  ( 4.275831445896960358E-30, 1.000000000000000000, 1.224646799147353651E-15 ) ) ;
#130 = CC_DESIGN_PERSON_AND_ORGANIZATION_ASSIGNMENT ( #80, #44, ( #32 ) ) ;
#131 = DIRECTION ( 'NONE',  ( -4.275831445896960358E-30, -1.000000000000000000, -1.224646799147353651E-15 ) ) ;
#132 = COORDINATED_UNIVERSAL_TIME_OFFSET ( 1, 0, .AHEAD. ) ;
#133 = APPROVAL_STATUS ( 'not_yet_approved' ) ;
#134 = AXIS2_PLACEMENT_3D ( 'NONE', #136, #8, #76 ) ;
#135 = AXIS2_PLACEMENT_3D ( 'NONE', #163, #34, #122 ) ;
#136 = CARTESIAN_POINT ( 'NONE',  ( 0.0000000000000000000, 0.0000000000000000000, 0.0000000000000000000 ) ) ;
#137 = EDGE_LOOP ( 'NONE', ( #31 ) ) ;
#138 = APPLICATION_CONTEXT ( 'configuration controlled 3d designs of mechanical parts and assemblies' ) ;
#139 = PERSON_AND_ORGANIZATION_ROLE ( 'design_supplier' ) ;
#140 = ORGANIZATION ( 'UNSPECIFIED', 'UNSPECIFIED', '' ) ;
#141 = FACE_OUTER_BOUND ( 'NONE', #137, .T. ) ;
#142 = PLANE ( 'NONE',  #164 ) ;
#143 = CARTESIAN_POINT ( 'NONE',  ( 0.0000000000000000000, 0.0000000000000000000, 0.0000000000000000000 ) ) ;
#144 = CC_DESIGN_DATE_AND_TIME_ASSIGNMENT ( #11, #125, ( #71 ) ) ;
#145 = DESIGN_CONTEXT ( 'detailed design', #63, 'design' ) ;
#146 = PERSON_AND_ORGANIZATION ( #116, #140 ) ;
#147 = DIRECTION ( 'NONE',  ( 4.266675569104030629E-30, 1.000000000000000000, 1.225982456579762797E-15 ) ) ;
#148 = APPROVAL_PERSON_ORGANIZATION ( #146, #43, #113 ) ;
#149 = LOCAL_TIME ( 14, 0, 8.000000000000000000, #99 ) ;
#150 = PERSON_AND_ORGANIZATION ( #116, #140 ) ;
#151 = CC_DESIGN_PERSON_AND_ORGANIZATION_ASSIGNMENT ( #155, #169, ( #71 ) ) ;
#152 = EDGE_CURVE ( 'NONE', #118, #118, #57, .T. ) ;
#153 = AXIS2_PLACEMENT_3D ( 'NONE', #45, #154, #16 ) ;
#154 = DIRECTION ( 'NONE',  ( -3.491481338843133355E-15, 1.224646799147353651E-15, -1.000000000000000000 ) ) ;
#155 = PERSON_AND_ORGANIZATION ( #116, #140 ) ;
#156 = CC_DESIGN_PERSON_AND_ORGANIZATION_ASSIGNMENT ( #161, #106, ( #159 ) ) ;
#157 = LOCAL_TIME ( 14, 0, 8.000000000000000000, #162 ) ;
#158 = VERTEX_POINT ( 'NONE', #49 ) ;
#159 = PRODUCT_DEFINITION ( 'UNKNOWN', '', #32, #145 ) ;
#160 = AXIS2_PLACEMENT_3D ( 'NONE', #13, #67, #54 ) ;
#161 = PERSON_AND_ORGANIZATION ( #116, #140 ) ;
#162 = COORDINATED_UNIVERSAL_TIME_OFFSET ( 1, 0, .AHEAD. ) ;
#163 = CARTESIAN_POINT ( 'NONE',  ( -2.779290439833024058E-29, 9.748438587302080888E-30, -7.960204194457798830E-15 ) ) ;
#164 = AXIS2_PLACEMENT_3D ( 'NONE', #18, #83, #129 ) ;
#165 = CC_DESIGN_PERSON_AND_ORGANIZATION_ASSIGNMENT ( #112, #139, ( #32 ) ) ;
#166 = COORDINATED_UNIVERSAL_TIME_OFFSET ( 1, 0, .AHEAD. ) ;
#167 = PERSON_AND_ORGANIZATION ( #116, #140 ) ;
#168 = ORIENTED_EDGE ( 'NONE', *, *, #91, .F. ) ;
#169 = PERSON_AND_ORGANIZATION_ROLE ( 'classification_officer' ) ;
ENDSEC;
END-ISO-10303-21;
