ISO-10303-21;
HEADER;
FILE_DESCRIPTION (( 'STEP AP203' ),
    '1' );
FILE_NAME ('65858.step',
    '2021-10-08T05:54:09',
    ( '' ),
    ( '' ),
    'SwSTEP 2.0',
    'SolidWorks 2019',
    '' );
FILE_SCHEMA (( 'CONFIG_CONTROL_DESIGN' ));
ENDSEC;

DATA;
#1 = ADVANCED_FACE ( 'NONE', ( #205, #58 ), #68, .T. ) ;
#2 = DIRECTION ( 'NONE',  ( -4.275831445896958607E-31, -1.000000000000000000, -1.224646799147353207E-16 ) ) ;
#3 = CLOSED_SHELL ( 'NONE', ( #36, #1, #194, #40, #217 ) ) ;
#4 = FACE_OUTER_BOUND ( 'NONE', #123, .T. ) ;
#5 = UNCERTAINTY_MEASURE_WITH_UNIT (LENGTH_MEASURE( 1.000000000000000082E-05 ), #201, 'distance_accuracy_value', 'NONE');
#6 = DIRECTION ( 'NONE',  ( -3.491481338843133355E-15, 1.224646799147353207E-16, -1.000000000000000000 ) ) ;
#7 = VERTEX_POINT ( 'NONE', #129 ) ;
#8 = DIRECTION ( 'NONE',  ( 0.0000000000000000000, 1.000000000000000000, 0.0000000000000000000 ) ) ;
#9 = PERSON_AND_ORGANIZATION_ROLE ( 'design_supplier' ) ;
#10 = CALENDAR_DATE ( 2021, 8, 10 ) ;
#11 = AXIS2_PLACEMENT_3D ( 'NONE', #178, #144, #126 ) ;
#12 = CALENDAR_DATE ( 2021, 8, 10 ) ;
#13 = LOCAL_TIME ( 7, 54, 9.000000000000000000, #148 ) ;
#14 = CALENDAR_DATE ( 2021, 8, 10 ) ;
#15 = CC_DESIGN_PERSON_AND_ORGANIZATION_ASSIGNMENT ( #84, #182, ( #220 ) ) ;
#16 = APPLICATION_CONTEXT ( 'configuration controlled 3d designs of mechanical parts and assemblies' ) ;
#17 = PERSON_AND_ORGANIZATION_ROLE ( 'design_owner' ) ;
#18 = CALENDAR_DATE ( 2021, 8, 10 ) ;
#19 =( GEOMETRIC_REPRESENTATION_CONTEXT ( 3 ) GLOBAL_UNCERTAINTY_ASSIGNED_CONTEXT ( ( #5 ) ) GLOBAL_UNIT_ASSIGNED_CONTEXT ( ( #201, #31, #135 ) ) REPRESENTATION_CONTEXT ( 'NONE', 'WORKASPACE' ) );
#20 = LOCAL_TIME ( 7, 54, 9.000000000000000000, #85 ) ;
#21 = ADVANCED_FACE ( 'NONE', ( #62 ), #213, .T. ) ;
#22 = CARTESIAN_POINT ( 'NONE',  ( 0.0000000000000000000, 0.0000000000000000000, 0.0000000000000000000 ) ) ;
#23 = CARTESIAN_POINT ( 'NONE',  ( 1.047444401652940007E-13, 4.124339402320052999E-33, 30.00000000000000000 ) ) ;
#24 = AXIS2_PLACEMENT_3D ( 'NONE', #196, #166, #110 ) ;
#25 = CYLINDRICAL_SURFACE ( 'NONE', #33, 0.6299999999999992273 ) ;
#26 = CARTESIAN_POINT ( 'NONE',  ( 3.491481338843133986E-14, 0.6299999999999985612, 10.00000000000000178 ) ) ;
#27 = DIRECTION ( 'NONE',  ( 3.057031657757523226E-31, 1.000000000000000000, 8.604779146710369535E-17 ) ) ;
#28 = PRODUCT ( '65858', '65858', '', ( #168 ) ) ;
#29 = PRODUCT_DEFINITION_SHAPE ( 'NONE', 'NONE',  #61 ) ;
#30 = DATE_AND_TIME ( #10, #133 ) ;
#31 =( NAMED_UNIT ( * ) PLANE_ANGLE_UNIT ( ) SI_UNIT ( $, .RADIAN. ) );
#32 = DATE_AND_TIME ( #12, #99 ) ;
#33 = AXIS2_PLACEMENT_3D ( 'NONE', #209, #97, #95 ) ;
#34 = PRODUCT_DEFINITION_FORMATION_WITH_SPECIFIED_SOURCE ( 'ANY', '', #28, .NOT_KNOWN. ) ;
#35 = ORIENTED_EDGE ( 'NONE', *, *, #179, .T. ) ;
#36 = ADVANCED_FACE ( 'NONE', ( #161 ), #190, .F. ) ;
#37 = APPROVAL_DATE_TIME ( #121, #78 ) ;
#38 = DIRECTION ( 'NONE',  ( 3.491481338843133355E-15, -1.224646799147353207E-16, 1.000000000000000000 ) ) ;
#39 = SHAPE_DEFINITION_REPRESENTATION ( #29, #46 ) ;
#40 = ADVANCED_FACE ( 'NONE', ( #4, #43 ), #192, .T. ) ;
#41 = EDGE_LOOP ( 'NONE', ( #71 ) ) ;
#42 = DIRECTION ( 'NONE',  ( 3.491481338843133355E-15, -1.224646799147353207E-16, 1.000000000000000000 ) ) ;
#43 = FACE_BOUND ( 'NONE', #189, .T. ) ;
#44 = DIRECTION ( 'NONE',  ( -3.491481338843133355E-15, 1.224646799147353207E-16, -1.000000000000000000 ) ) ;
#45 = DESIGN_CONTEXT ( 'detailed design', #16, 'design' ) ;
#46 = ADVANCED_BREP_SHAPE_REPRESENTATION ( '65858', ( #54, #49, #103 ), #19 ) ;
#47 = VERTEX_POINT ( 'NONE', #83 ) ;
#48 = DIRECTION ( 'NONE',  ( 0.0000000000000000000, 1.000000000000000000, 0.0000000000000000000 ) ) ;
#49 = MANIFOLD_SOLID_BREP ( 'Corps-Déplacer/Copier1[2]', #106 ) ;
#50 = DATE_AND_TIME ( #134, #13 ) ;
#51 = DATE_TIME_ROLE ( 'creation_date' ) ;
#52 = ORGANIZATION ( 'UNSPECIFIED', 'UNSPECIFIED', '' ) ;
#53 = PERSON_AND_ORGANIZATION ( #147, #52 ) ;
#54 = MANIFOLD_SOLID_BREP ( 'Corps-Déplacer/Copier1[1]', #3 ) ;
#55 = APPROVAL_DATE_TIME ( #30, #156 ) ;
#56 = ORIENTED_EDGE ( 'NONE', *, *, #120, .F. ) ;
#57 = APPROVAL_STATUS ( 'not_yet_approved' ) ;
#58 = FACE_OUTER_BOUND ( 'NONE', #118, .T. ) ;
#59 = DIRECTION ( 'NONE',  ( -3.491481338843133355E-15, 1.224646799147353207E-16, -1.000000000000000000 ) ) ;
#60 = DIRECTION ( 'NONE',  ( 3.491481338843133355E-15, -1.224646799147353207E-16, 1.000000000000000000 ) ) ;
#61 = PRODUCT_DEFINITION ( 'UNKNOWN', '', #34, #45 ) ;
#62 = FACE_OUTER_BOUND ( 'NONE', #158, .T. ) ;
#63 = CARTESIAN_POINT ( 'NONE',  ( 3.564050415713791566E-14, -1.250100604876750768E-15, 10.20784609690826450 ) ) ;
#64 = CARTESIAN_POINT ( 'NONE',  ( 1.269958845236544717E-15, -4.454416002644653268E-17, 0.3637306695894678699 ) ) ;
#65 = AXIS2_PLACEMENT_3D ( 'NONE', #186, #38, #77 ) ;
#66 = PERSON_AND_ORGANIZATION_ROLE ( 'creator' ) ;
#67 = PERSON_AND_ORGANIZATION ( #147, #52 ) ;
#68 = CONICAL_SURFACE ( 'NONE', #65, 0.7499999999999976685, 0.5235987755982977054 ) ;
#69 = DATE_AND_TIME ( #14, #20 ) ;
#70 = PRODUCT_RELATED_PRODUCT_CATEGORY ( 'detail', '', ( #28 ) ) ;
#71 = ORIENTED_EDGE ( 'NONE', *, *, #90, .T. ) ;
#72 = EDGE_LOOP ( 'NONE', ( #159 ) ) ;
#73 = APPROVAL_ROLE ( '' ) ;
#74 = EDGE_LOOP ( 'NONE', ( #208 ) ) ;
#75 = FACE_OUTER_BOUND ( 'NONE', #221, .T. ) ;
#76 = AXIS2_PLACEMENT_3D ( 'NONE', #79, #59, #92 ) ;
#77 = DIRECTION ( 'NONE',  ( 0.0000000000000000000, -1.000000000000000000, 0.0000000000000000000 ) ) ;
#78 = APPROVAL ( #57, 'UNSPECIFIED' ) ;
#79 = CARTESIAN_POINT ( 'NONE',  ( 1.040461438975253740E-13, -3.649447461459112464E-15, 29.80000000000000071 ) ) ;
#80 = CARTESIAN_POINT ( 'NONE',  ( 3.491481338843133986E-14, -2.077181119106918979E-31, 10.00000000000000178 ) ) ;
#81 = CIRCLE ( 'NONE', #76, 0.7500000000000001110 ) ;
#82 = CC_DESIGN_APPROVAL ( #156, ( #61 ) ) ;
#83 = CARTESIAN_POINT ( 'NONE',  ( 3.564050415713791566E-14, 0.7499999999999963363, 10.20784609690826450 ) ) ;
#84 = PERSON_AND_ORGANIZATION ( #147, #52 ) ;
#85 = COORDINATED_UNIVERSAL_TIME_OFFSET ( 1, 0, .AHEAD. ) ;
#86 = APPROVAL ( #219, 'UNSPECIFIED' ) ;
#87 = CARTESIAN_POINT ( 'NONE',  ( 1.047444401652940007E-13, 0.5499999999999963807, 30.00000000000000000 ) ) ;
#88 = AXIS2_PLACEMENT_3D ( 'NONE', #215, #214, #48 ) ;
#89 = EDGE_LOOP ( 'NONE', ( #173 ) ) ;
#90 = EDGE_CURVE ( 'NONE', #177, #177, #171, .T. ) ;
#91 = ORIENTED_EDGE ( 'NONE', *, *, #200, .F. ) ;
#92 = DIRECTION ( 'NONE',  ( 0.0000000000000000000, 1.000000000000000000, 0.0000000000000000000 ) ) ;
#93 = CC_DESIGN_DATE_AND_TIME_ASSIGNMENT ( #32, #51, ( #61 ) ) ;
#94 = DIRECTION ( 'NONE',  ( -3.491481338843133355E-15, 1.224646799147353207E-16, -1.000000000000000000 ) ) ;
#95 = DIRECTION ( 'NONE',  ( 4.275831445896959482E-31, 1.000000000000000000, 1.224646799147353454E-16 ) ) ;
#96 = DIRECTION ( 'NONE',  ( 0.0000000000000000000, 1.000000000000000000, 0.0000000000000000000 ) ) ;
#97 = DIRECTION ( 'NONE',  ( -3.491481338843133355E-15, 1.224646799147353207E-16, -1.000000000000000000 ) ) ;
#98 = AXIS2_PLACEMENT_3D ( 'NONE', #63, #113, #96 ) ;
#99 = LOCAL_TIME ( 7, 54, 9.000000000000000000, #102 ) ;
#100 = APPLICATION_PROTOCOL_DEFINITION ( 'international standard', 'config_control_design', 1994, #16 ) ;
#101 = DIRECTION ( 'NONE',  ( 0.0000000000000000000, 0.0000000000000000000, 1.000000000000000000 ) ) ;
#102 = COORDINATED_UNIVERSAL_TIME_OFFSET ( 1, 0, .AHEAD. ) ;
#103 = AXIS2_PLACEMENT_3D ( 'NONE', #216, #101, #117 ) ;
#104 = PERSON_AND_ORGANIZATION ( #147, #52 ) ;
#105 = VERTEX_POINT ( 'NONE', #87 ) ;
#106 = CLOSED_SHELL ( 'NONE', ( #21, #172, #124 ) ) ;
#107 = LOCAL_TIME ( 7, 54, 9.000000000000000000, #174 ) ;
#108 = EDGE_LOOP ( 'NONE', ( #91 ) ) ;
#109 = CARTESIAN_POINT ( 'NONE',  ( 1.269958845236544717E-15, -4.454416002644653268E-17, 0.3637306695894678699 ) ) ;
#110 = DIRECTION ( 'NONE',  ( -4.275831445896958607E-31, -1.000000000000000000, -1.224646799147353207E-16 ) ) ;
#111 = APPROVAL_PERSON_ORGANIZATION ( #167, #86, #202 ) ;
#112 = FACE_OUTER_BOUND ( 'NONE', #108, .T. ) ;
#113 = DIRECTION ( 'NONE',  ( -3.491481338843133355E-15, 1.224646799147353207E-16, -1.000000000000000000 ) ) ;
#114 = APPROVAL_PERSON_ORGANIZATION ( #184, #78, #73 ) ;
#115 = CC_DESIGN_PERSON_AND_ORGANIZATION_ASSIGNMENT ( #181, #9, ( #34 ) ) ;
#116 = CARTESIAN_POINT ( 'NONE',  ( 3.491481338843133986E-14, 0.6299999999999985612, 10.00000000000000178 ) ) ;
#117 = DIRECTION ( 'NONE',  ( 1.000000000000000000, 0.0000000000000000000, 0.0000000000000000000 ) ) ;
#118 = EDGE_LOOP ( 'NONE', ( #157 ) ) ;
#119 = CIRCLE ( 'NONE', #197, 0.6299999999999987832 ) ;
#120 = EDGE_CURVE ( 'NONE', #7, #7, #81, .T. ) ;
#121 = DATE_AND_TIME ( #18, #107 ) ;
#122 = CIRCLE ( 'NONE', #222, 0.6299999999999997824 ) ;
#123 = EDGE_LOOP ( 'NONE', ( #56 ) ) ;
#124 = ADVANCED_FACE ( 'NONE', ( #75 ), #125, .T. ) ;
#125 = PLANE ( 'NONE',  #24 ) ;
#126 = DIRECTION ( 'NONE',  ( 0.0000000000000000000, 1.000000000000000000, 0.0000000000000000000 ) ) ;
#127 = DIRECTION ( 'NONE',  ( -3.057031657757523226E-31, -1.000000000000000000, -8.604779146710369535E-17 ) ) ;
#128 = CC_DESIGN_APPROVAL ( #86, ( #34 ) ) ;
#129 = CARTESIAN_POINT ( 'NONE',  ( 1.040461438975253740E-13, 0.7499999999999964473, 29.80000000000000071 ) ) ;
#130 = CYLINDRICAL_SURFACE ( 'NONE', #160, 0.7499999999999988898 ) ;
#131 = CARTESIAN_POINT ( 'NONE',  ( 1.269958845236544915E-15, 0.6299999999999987832, 0.3637306695894679254 ) ) ;
#132 = EDGE_CURVE ( 'NONE', #47, #47, #145, .T. ) ;
#133 = LOCAL_TIME ( 7, 54, 9.000000000000000000, #169 ) ;
#134 = CALENDAR_DATE ( 2021, 8, 10 ) ;
#135 =( NAMED_UNIT ( * ) SI_UNIT ( $, .STERADIAN. ) SOLID_ANGLE_UNIT ( ) );
#136 = APPROVAL_STATUS ( 'not_yet_approved' ) ;
#137 = APPROVAL_PERSON_ORGANIZATION ( #67, #156, #218 ) ;
#138 = EDGE_LOOP ( 'NONE', ( #35 ) ) ;
#139 = ORIENTED_EDGE ( 'NONE', *, *, #90, .F. ) ;
#140 = CC_DESIGN_PERSON_AND_ORGANIZATION_ASSIGNMENT ( #53, #17, ( #28 ) ) ;
#141 = ORIENTED_EDGE ( 'NONE', *, *, #153, .F. ) ;
#142 = DIRECTION ( 'NONE',  ( -3.491481338843133355E-15, 1.224646799147353207E-16, -1.000000000000000000 ) ) ;
#143 = DIRECTION ( 'NONE',  ( -3.491481338843133355E-15, 1.224646799147353207E-16, -1.000000000000000000 ) ) ;
#144 = DIRECTION ( 'NONE',  ( -3.491481338843133355E-15, 1.224646799147353207E-16, -1.000000000000000000 ) ) ;
#145 = CIRCLE ( 'NONE', #98, 0.7499999999999976685 ) ;
#146 = FACE_OUTER_BOUND ( 'NONE', #41, .T. ) ;
#147 = PERSON ( 'UNSPECIFIED', 'UNSPECIFIED', 'UNSPECIFIED', ('UNSPECIFIED'), ('UNSPECIFIED'), ('UNSPECIFIED') ) ;
#148 = COORDINATED_UNIVERSAL_TIME_OFFSET ( 1, 0, .AHEAD. ) ;
#149 = APPROVAL_DATE_TIME ( #69, #86 ) ;
#150 = CIRCLE ( 'NONE', #185, 0.5500000000000000444 ) ;
#151 = CC_DESIGN_APPROVAL ( #78, ( #220 ) ) ;
#152 = SECURITY_CLASSIFICATION_LEVEL ( 'unclassified' ) ;
#153 = EDGE_CURVE ( 'NONE', #203, #203, #119, .T. ) ;
#154 = CC_DESIGN_SECURITY_CLASSIFICATION ( #220, ( #34 ) ) ;
#155 = EDGE_LOOP ( 'NONE', ( #141 ) ) ;
#156 = APPROVAL ( #136, 'UNSPECIFIED' ) ;
#157 = ORIENTED_EDGE ( 'NONE', *, *, #132, .T. ) ;
#158 = EDGE_LOOP ( 'NONE', ( #223 ) ) ;
#159 = ORIENTED_EDGE ( 'NONE', *, *, #132, .F. ) ;
#160 = AXIS2_PLACEMENT_3D ( 'NONE', #22, #142, #211 ) ;
#161 = FACE_OUTER_BOUND ( 'NONE', #138, .T. ) ;
#162 = CARTESIAN_POINT ( 'NONE',  ( 1.047444401652940007E-13, -3.673940397442059178E-15, 30.00000000000000000 ) ) ;
#163 = CC_DESIGN_PERSON_AND_ORGANIZATION_ASSIGNMENT ( #104, #66, ( #61 ) ) ;
#164 = DIRECTION ( 'NONE',  ( 4.275831445896958607E-31, 1.000000000000000000, 1.224646799147353207E-16 ) ) ;
#165 = AXIS2_PLACEMENT_3D ( 'NONE', #80, #60, #2 ) ;
#166 = DIRECTION ( 'NONE',  ( 3.491481338843133355E-15, -1.224646799147353207E-16, 1.000000000000000000 ) ) ;
#167 = PERSON_AND_ORGANIZATION ( #147, #52 ) ;
#168 = MECHANICAL_CONTEXT ( 'NONE', #210, 'mechanical' ) ;
#169 = COORDINATED_UNIVERSAL_TIME_OFFSET ( 1, 0, .AHEAD. ) ;
#170 = VERTEX_POINT ( 'NONE', #116 ) ;
#171 = CIRCLE ( 'NONE', #11, 0.6299999999999997824 ) ;
#172 = ADVANCED_FACE ( 'NONE', ( #191, #146 ), #25, .T. ) ;
#173 = ORIENTED_EDGE ( 'NONE', *, *, #179, .F. ) ;
#174 = COORDINATED_UNIVERSAL_TIME_OFFSET ( 1, 0, .AHEAD. ) ;
#175 = PLANE ( 'NONE',  #206 ) ;
#176 = FACE_OUTER_BOUND ( 'NONE', #74, .T. ) ;
#177 = VERTEX_POINT ( 'NONE', #26 ) ;
#178 = CARTESIAN_POINT ( 'NONE',  ( 3.491481338843133986E-14, -1.224646799147353454E-15, 10.00000000000000178 ) ) ;
#179 = EDGE_CURVE ( 'NONE', #170, #170, #122, .T. ) ;
#180 = PERSON_AND_ORGANIZATION_ROLE ( 'creator' ) ;
#181 = PERSON_AND_ORGANIZATION ( #147, #52 ) ;
#182 = PERSON_AND_ORGANIZATION_ROLE ( 'classification_officer' ) ;
#183 = PERSON_AND_ORGANIZATION ( #147, #52 ) ;
#184 = PERSON_AND_ORGANIZATION ( #147, #52 ) ;
#185 = AXIS2_PLACEMENT_3D ( 'NONE', #162, #44, #8 ) ;
#186 = CARTESIAN_POINT ( 'NONE',  ( 3.564050415713791566E-14, -1.250100604876750768E-15, 10.20784609690826450 ) ) ;
#187 = CC_DESIGN_PERSON_AND_ORGANIZATION_ASSIGNMENT ( #183, #180, ( #34 ) ) ;
#188 = AXIS2_PLACEMENT_3D ( 'NONE', #64, #42, #127 ) ;
#189 = EDGE_LOOP ( 'NONE', ( #204 ) ) ;
#190 = PLANE ( 'NONE',  #165 ) ;
#191 = FACE_OUTER_BOUND ( 'NONE', #155, .T. ) ;
#192 = CONICAL_SURFACE ( 'NONE', #88, 0.5500000000000000444, 0.7853981633974516097 ) ;
#193 = DIRECTION ( 'NONE',  ( 0.0000000000000000000, 1.000000000000000000, 0.0000000000000000000 ) ) ;
#194 = ADVANCED_FACE ( 'NONE', ( #195, #176 ), #130, .T. ) ;
#195 = FACE_OUTER_BOUND ( 'NONE', #72, .T. ) ;
#196 = CARTESIAN_POINT ( 'NONE',  ( 3.491481338843133986E-14, -2.077181119106918979E-31, 10.00000000000000178 ) ) ;
#197 = AXIS2_PLACEMENT_3D ( 'NONE', #109, #94, #27 ) ;
#198 = APPLICATION_PROTOCOL_DEFINITION ( 'international standard', 'config_control_design', 1994, #210 ) ;
#199 = DATE_TIME_ROLE ( 'classification_date' ) ;
#200 = EDGE_CURVE ( 'NONE', #105, #105, #150, .T. ) ;
#201 =( LENGTH_UNIT ( ) NAMED_UNIT ( * ) SI_UNIT ( .MILLI., .METRE. ) );
#202 = APPROVAL_ROLE ( '' ) ;
#203 = VERTEX_POINT ( 'NONE', #131 ) ;
#204 = ORIENTED_EDGE ( 'NONE', *, *, #200, .T. ) ;
#205 = FACE_BOUND ( 'NONE', #89, .T. ) ;
#206 = AXIS2_PLACEMENT_3D ( 'NONE', #23, #6, #164 ) ;
#207 = CC_DESIGN_DATE_AND_TIME_ASSIGNMENT ( #50, #199, ( #220 ) ) ;
#208 = ORIENTED_EDGE ( 'NONE', *, *, #120, .T. ) ;
#209 = CARTESIAN_POINT ( 'NONE',  ( 0.0000000000000000000, 0.0000000000000000000, 0.0000000000000000000 ) ) ;
#210 = APPLICATION_CONTEXT ( 'configuration controlled 3d designs of mechanical parts and assemblies' ) ;
#211 = DIRECTION ( 'NONE',  ( 4.275831445896959482E-31, 1.000000000000000000, 1.224646799147353207E-16 ) ) ;
#212 = CARTESIAN_POINT ( 'NONE',  ( 3.491481338843133986E-14, -1.224646799147353454E-15, 10.00000000000000178 ) ) ;
#213 = CONICAL_SURFACE ( 'NONE', #188, 0.6299999999999987832, 1.047197551196592746 ) ;
#214 = DIRECTION ( 'NONE',  ( -3.491481338843133355E-15, 1.224646799147353207E-16, -1.000000000000000000 ) ) ;
#215 = CARTESIAN_POINT ( 'NONE',  ( 1.047444401652940007E-13, -3.673940397442059178E-15, 30.00000000000000000 ) ) ;
#216 = CARTESIAN_POINT ( 'NONE',  ( 0.0000000000000000000, 0.0000000000000000000, 0.0000000000000000000 ) ) ;
#217 = ADVANCED_FACE ( 'NONE', ( #112 ), #175, .F. ) ;
#218 = APPROVAL_ROLE ( '' ) ;
#219 = APPROVAL_STATUS ( 'not_yet_approved' ) ;
#220 = SECURITY_CLASSIFICATION ( '', '', #152 ) ;
#221 = EDGE_LOOP ( 'NONE', ( #139 ) ) ;
#222 = AXIS2_PLACEMENT_3D ( 'NONE', #212, #143, #193 ) ;
#223 = ORIENTED_EDGE ( 'NONE', *, *, #153, .T. ) ;
ENDSEC;
END-ISO-10303-21;
