ISO-10303-21;
HEADER;
FILE_DESCRIPTION (( 'STEP AP203' ),
    '1' );
FILE_NAME ('65852.step',
    '2021-11-24T06:51:36',
    ( '' ),
    ( '' ),
    'SwSTEP 2.0',
    'SolidWorks 2019',
    '' );
FILE_SCHEMA (( 'CONFIG_CONTROL_DESIGN' ));
ENDSEC;

DATA;
#1 = PRODUCT_DEFINITION ( 'UNKNOWN', '', #24, #50 ) ;
#2 = CARTESIAN_POINT ( 'NONE',  ( 1.326762908760390423E-13, -4.653657836759941941E-15, 38.00000000000000000 ) ) ;
#3 = ADVANCED_BREP_SHAPE_REPRESENTATION ( '65852', ( #66, #227, #172 ), #238 ) ;
#4 = DIRECTION ( 'NONE',  ( 0.0000000000000000000, 1.000000000000000000, 0.0000000000000000000 ) ) ;
#5 = CC_DESIGN_PERSON_AND_ORGANIZATION_ASSIGNMENT ( #229, #186, ( #90 ) ) ;
#6 = EDGE_LOOP ( 'NONE', ( #61 ) ) ;
#7 = PERSON_AND_ORGANIZATION ( #216, #189 ) ;
#8 = DIRECTION ( 'NONE',  ( -3.491481338843133355E-15, 1.224646799147353207E-16, -1.000000000000000000 ) ) ;
#9 = EDGE_CURVE ( 'NONE', #105, #105, #89, .T. ) ;
#10 = DIRECTION ( 'NONE',  ( 3.491481338843133355E-15, -1.224646799147353207E-16, 1.000000000000000000 ) ) ;
#11 = UNCERTAINTY_MEASURE_WITH_UNIT (LENGTH_MEASURE( 1.000000000000000082E-05 ), #119, 'distance_accuracy_value', 'NONE');
#12 = DATE_AND_TIME ( #47, #154 ) ;
#13 = DIRECTION ( 'NONE',  ( -3.491481338843133355E-15, 1.224646799147353207E-16, -1.000000000000000000 ) ) ;
#14 = CARTESIAN_POINT ( 'NONE',  ( 0.0000000000000000000, 0.0000000000000000000, 0.0000000000000000000 ) ) ;
#15 = DATE_AND_TIME ( #104, #150 ) ;
#16 = DIRECTION ( 'NONE',  ( 1.000000000000000000, 0.0000000000000000000, 0.0000000000000000000 ) ) ;
#17 = COORDINATED_UNIVERSAL_TIME_OFFSET ( 1, 0, .AHEAD. ) ;
#18 = PRODUCT_DEFINITION_SHAPE ( 'NONE', 'NONE',  #1 ) ;
#19 = CARTESIAN_POINT ( 'NONE',  ( 1.187103655206665183E-14, -4.163799117101000066E-16, 3.399999999999999467 ) ) ;
#20 = AXIS2_PLACEMENT_3D ( 'NONE', #82, #156, #139 ) ;
#21 = FACE_OUTER_BOUND ( 'NONE', #130, .T. ) ;
#22 = DIRECTION ( 'NONE',  ( -3.491481338843133355E-15, 1.224646799147353207E-16, -1.000000000000000000 ) ) ;
#23 = CARTESIAN_POINT ( 'NONE',  ( 0.0000000000000000000, 0.0000000000000000000, 0.0000000000000000000 ) ) ;
#24 = PRODUCT_DEFINITION_FORMATION_WITH_SPECIFIED_SOURCE ( 'ANY', '', #81, .NOT_KNOWN. ) ;
#25 = DIRECTION ( 'NONE',  ( 4.275831445896959482E-31, 1.000000000000000000, 1.224646799147353207E-16 ) ) ;
#26 = ORIENTED_EDGE ( 'NONE', *, *, #228, .F. ) ;
#27 = ORIENTED_EDGE ( 'NONE', *, *, #9, .T. ) ;
#28 = PLANE ( 'NONE',  #99 ) ;
#29 = APPROVAL_DATE_TIME ( #135, #158 ) ;
#30 = ADVANCED_FACE ( 'NONE', ( #92 ), #180, .F. ) ;
#31 = DIRECTION ( 'NONE',  ( -3.491481338843133355E-15, 1.224646799147353207E-16, -1.000000000000000000 ) ) ;
#32 = AXIS2_PLACEMENT_3D ( 'NONE', #222, #22, #127 ) ;
#33 = FACE_OUTER_BOUND ( 'NONE', #40, .T. ) ;
#34 = EDGE_CURVE ( 'NONE', #137, #137, #201, .T. ) ;
#35 = DIRECTION ( 'NONE',  ( 4.275831445896958607E-31, 1.000000000000000000, 1.224646799147353207E-16 ) ) ;
#36 = DIRECTION ( 'NONE',  ( -3.491481338843133355E-15, 1.224646799147353207E-16, -1.000000000000000000 ) ) ;
#37 = DATE_AND_TIME ( #178, #230 ) ;
#38 = CYLINDRICAL_SURFACE ( 'NONE', #237, 1.500000000000000000 ) ;
#39 = DIRECTION ( 'NONE',  ( -4.275831445896958607E-31, -1.000000000000000000, -1.224646799147353207E-16 ) ) ;
#40 = EDGE_LOOP ( 'NONE', ( #202 ) ) ;
#41 = APPLICATION_CONTEXT ( 'configuration controlled 3d designs of mechanical parts and assemblies' ) ;
#42 = DIRECTION ( 'NONE',  ( 0.0000000000000000000, 1.000000000000000000, 0.0000000000000000000 ) ) ;
#43 = DATE_TIME_ROLE ( 'classification_date' ) ;
#44 = APPROVAL_PERSON_ORGANIZATION ( #214, #158, #236 ) ;
#45 = PERSON_AND_ORGANIZATION ( #216, #189 ) ;
#46 = COORDINATED_UNIVERSAL_TIME_OFFSET ( 1, 0, .AHEAD. ) ;
#47 = CALENDAR_DATE ( 2021, 24, 11 ) ;
#48 = CC_DESIGN_SECURITY_CLASSIFICATION ( #90, ( #24 ) ) ;
#49 = CARTESIAN_POINT ( 'NONE',  ( 7.197816643434953303E-15, 0.7499999999999996669, 2.061536621536083302 ) ) ;
#50 = DESIGN_CONTEXT ( 'detailed design', #188, 'design' ) ;
#51 = DIRECTION ( 'NONE',  ( 3.491481338843133355E-15, -1.224646799147353207E-16, 1.000000000000000000 ) ) ;
#52 = DIRECTION ( 'NONE',  ( -3.491481338843133355E-15, 1.224646799147353207E-16, -1.000000000000000000 ) ) ;
#53 = CARTESIAN_POINT ( 'NONE',  ( 7.197816643434953303E-15, 0.7499999999999996669, 2.061536621536083302 ) ) ;
#54 = APPLICATION_PROTOCOL_DEFINITION ( 'international standard', 'config_control_design', 1994, #188 ) ;
#55 = CARTESIAN_POINT ( 'NONE',  ( 1.326762908760390423E-13, 1.199999999999998845, 38.00000000000000000 ) ) ;
#56 = CONICAL_SURFACE ( 'NONE', #20, 0.1000000000000000056, 0.3054326190990083179 ) ;
#57 = DIRECTION ( 'NONE',  ( 3.491481338843133355E-15, -1.224646799147353207E-16, 1.000000000000000000 ) ) ;
#58 = ORIENTED_EDGE ( 'NONE', *, *, #98, .T. ) ;
#59 = DIRECTION ( 'NONE',  ( 4.275831445896958607E-31, 1.000000000000000000, 1.224646799147353207E-16 ) ) ;
#60 = TOROIDAL_SURFACE ( 'NONE', #187, 8.750000000000000000, 8.000000000000000000 ) ;
#61 = ORIENTED_EDGE ( 'NONE', *, *, #9, .F. ) ;
#62 = CONICAL_SURFACE ( 'NONE', #134, 1.200000000000003286, 0.7853981633974453924 ) ;
#63 = ORIENTED_EDGE ( 'NONE', *, *, #116, .T. ) ;
#64 = CALENDAR_DATE ( 2021, 24, 11 ) ;
#65 = CLOSED_SHELL ( 'NONE', ( #145, #190, #174, #136, #218, #30 ) ) ;
#66 = MANIFOLD_SOLID_BREP ( 'Corps-Déplacer/Copier1[1]', #65 ) ;
#67 = CALENDAR_DATE ( 2021, 24, 11 ) ;
#68 = DIRECTION ( 'NONE',  ( 0.0000000000000000000, 1.000000000000000000, 0.0000000000000000000 ) ) ;
#69 = FACE_BOUND ( 'NONE', #184, .T. ) ;
#70 = DATE_TIME_ROLE ( 'creation_date' ) ;
#71 = CARTESIAN_POINT ( 'NONE',  ( 1.187103655206665183E-14, 0.0000000000000000000, 3.399999999999999911 ) ) ;
#72 = COORDINATED_UNIVERSAL_TIME_OFFSET ( 1, 0, .AHEAD. ) ;
#73 = AXIS2_PLACEMENT_3D ( 'NONE', #2, #77, #164 ) ;
#74 = CARTESIAN_POINT ( 'NONE',  ( 1.326762908760390423E-13, -4.653657836759941941E-15, 38.00000000000000000 ) ) ;
#75 = MECHANICAL_CONTEXT ( 'NONE', #41, 'mechanical' ) ;
#76 = CARTESIAN_POINT ( 'NONE',  ( 1.316288464743861212E-13, -4.616918432785521081E-15, 37.69999999999999574 ) ) ;
#77 = DIRECTION ( 'NONE',  ( -3.491481338843133355E-15, 1.224646799147353207E-16, -1.000000000000000000 ) ) ;
#78 = CARTESIAN_POINT ( 'NONE',  ( 7.197816643434953303E-15, -2.524654224889212613E-16, 2.061536621536083302 ) ) ;
#79 = ORIENTED_EDGE ( 'NONE', *, *, #95, .F. ) ;
#80 = DIRECTION ( 'NONE',  ( -4.275831445896958607E-31, -1.000000000000000000, -1.224646799147353207E-16 ) ) ;
#81 = PRODUCT ( '65852', '65852', '', ( #75 ) ) ;
#82 = CARTESIAN_POINT ( 'NONE',  ( -3.206873584422718626E-32, 1.124819836996393035E-33, -9.184850993605147205E-18 ) ) ;
#83 = PERSON_AND_ORGANIZATION ( #216, #189 ) ;
#84 = FACE_OUTER_BOUND ( 'NONE', #132, .T. ) ;
#85 = APPROVAL_STATUS ( 'not_yet_approved' ) ;
#86 = CIRCLE ( 'NONE', #102, 0.7499999999999998890 ) ;
#87 = CC_DESIGN_APPROVAL ( #153, ( #90 ) ) ;
#88 = EDGE_LOOP ( 'NONE', ( #223 ) ) ;
#89 = CIRCLE ( 'NONE', #73, 1.200000000000003286 ) ;
#90 = SECURITY_CLASSIFICATION ( '', '', #208 ) ;
#91 = ORIENTED_EDGE ( 'NONE', *, *, #34, .T. ) ;
#92 = FACE_OUTER_BOUND ( 'NONE', #6, .T. ) ;
#93 = EDGE_LOOP ( 'NONE', ( #166 ) ) ;
#94 = CARTESIAN_POINT ( 'NONE',  ( -3.206873584422718626E-32, 1.124819836996393035E-33, -9.184850993605147205E-18 ) ) ;
#95 = EDGE_CURVE ( 'NONE', #138, #138, #185, .T. ) ;
#96 = PERSON_AND_ORGANIZATION_ROLE ( 'design_supplier' ) ;
#97 = CC_DESIGN_PERSON_AND_ORGANIZATION_ASSIGNMENT ( #100, #152, ( #24 ) ) ;
#98 = EDGE_CURVE ( 'NONE', #141, #141, #175, .T. ) ;
#99 = AXIS2_PLACEMENT_3D ( 'NONE', #171, #10, #80 ) ;
#100 = PERSON_AND_ORGANIZATION ( #216, #189 ) ;
#101 = VERTEX_POINT ( 'NONE', #177 ) ;
#102 = AXIS2_PLACEMENT_3D ( 'NONE', #78, #8, #146 ) ;
#103 = LOCAL_TIME ( 7, 51, 36.00000000000000000, #204 ) ;
#104 = CALENDAR_DATE ( 2021, 24, 11 ) ;
#105 = VERTEX_POINT ( 'NONE', #55 ) ;
#106 = VERTEX_POINT ( 'NONE', #215 ) ;
#107 = CARTESIAN_POINT ( 'NONE',  ( 7.197816643434953303E-15, 5.624099184981962608E-33, 2.061536621536083302 ) ) ;
#108 = CARTESIAN_POINT ( 'NONE',  ( 1.326762908760390423E-13, 8.998558695971103225E-33, 38.00000000000000000 ) ) ;
#109 = EDGE_LOOP ( 'NONE', ( #63 ) ) ;
#110 = DIRECTION ( 'NONE',  ( -3.491481338843133355E-15, 1.224646799147353207E-16, -1.000000000000000000 ) ) ;
#111 = FACE_OUTER_BOUND ( 'NONE', #225, .T. ) ;
#112 = EDGE_LOOP ( 'NONE', ( #151 ) ) ;
#113 = SHAPE_DEFINITION_REPRESENTATION ( #18, #3 ) ;
#114 = AXIS2_PLACEMENT_3D ( 'NONE', #108, #203, #59 ) ;
#115 = CC_DESIGN_PERSON_AND_ORGANIZATION_ASSIGNMENT ( #7, #96, ( #24 ) ) ;
#116 = EDGE_CURVE ( 'NONE', #106, #106, #191, .T. ) ;
#117 = APPROVAL_STATUS ( 'not_yet_approved' ) ;
#118 = PERSON_AND_ORGANIZATION ( #216, #189 ) ;
#119 =( LENGTH_UNIT ( ) NAMED_UNIT ( * ) SI_UNIT ( .MILLI., .METRE. ) );
#120 = AXIS2_PLACEMENT_3D ( 'NONE', #212, #36, #35 ) ;
#121 = EDGE_CURVE ( 'NONE', #179, #179, #86, .T. ) ;
#122 = PRODUCT_RELATED_PRODUCT_CATEGORY ( 'detail', '', ( #81 ) ) ;
#123 = CARTESIAN_POINT ( 'NONE',  ( 2.367900757518973625E-14, 1.499999999999996225, 6.781937314617162649 ) ) ;
#124 = ORIENTED_EDGE ( 'NONE', *, *, #34, .F. ) ;
#125 = DIRECTION ( 'NONE',  ( 4.275831445896958607E-31, 1.000000000000000000, 1.224646799147353207E-16 ) ) ;
#126 = ADVANCED_FACE ( 'NONE', ( #111 ), #143, .F. ) ;
#127 = DIRECTION ( 'NONE',  ( 0.0000000000000000000, 1.000000000000000000, 0.0000000000000000000 ) ) ;
#128 = AXIS2_PLACEMENT_3D ( 'NONE', #107, #51, #232 ) ;
#129 = AXIS2_PLACEMENT_3D ( 'NONE', #19, #31, #68 ) ;
#130 = EDGE_LOOP ( 'NONE', ( #182 ) ) ;
#131 = CC_DESIGN_PERSON_AND_ORGANIZATION_ASSIGNMENT ( #83, #157, ( #1 ) ) ;
#132 = EDGE_LOOP ( 'NONE', ( #26 ) ) ;
#133 = AXIS2_PLACEMENT_3D ( 'NONE', #221, #57, #39 ) ;
#134 = AXIS2_PLACEMENT_3D ( 'NONE', #74, #52, #162 ) ;
#135 = DATE_AND_TIME ( #67, #176 ) ;
#136 = ADVANCED_FACE ( 'NONE', ( #181, #149 ), #38, .T. ) ;
#137 = VERTEX_POINT ( 'NONE', #123 ) ;
#138 = VERTEX_POINT ( 'NONE', #49 ) ;
#139 = DIRECTION ( 'NONE',  ( -4.275831445896958607E-31, -1.000000000000000000, -1.224646799147353207E-16 ) ) ;
#140 = CLOSED_SHELL ( 'NONE', ( #126, #205, #170 ) ) ;
#141 = VERTEX_POINT ( 'NONE', #160 ) ;
#142 = APPROVAL_DATE_TIME ( #37, #163 ) ;
#143 = PLANE ( 'NONE',  #133 ) ;
#144 = CC_DESIGN_APPROVAL ( #163, ( #1 ) ) ;
#145 = ADVANCED_FACE ( 'NONE', ( #224 ), #28, .F. ) ;
#146 = DIRECTION ( 'NONE',  ( 0.0000000000000000000, 1.000000000000000000, 0.0000000000000000000 ) ) ;
#147 = EDGE_LOOP ( 'NONE', ( #79 ) ) ;
#148 = CC_DESIGN_DATE_AND_TIME_ASSIGNMENT ( #12, #43, ( #90 ) ) ;
#149 = FACE_OUTER_BOUND ( 'NONE', #109, .T. ) ;
#150 = LOCAL_TIME ( 7, 51, 36.00000000000000000, #233 ) ;
#151 = ORIENTED_EDGE ( 'NONE', *, *, #121, .T. ) ;
#152 = PERSON_AND_ORGANIZATION_ROLE ( 'creator' ) ;
#153 = APPROVAL ( #117, 'UNSPECIFIED' ) ;
#154 = LOCAL_TIME ( 7, 51, 36.00000000000000000, #46 ) ;
#155 = APPROVAL_DATE_TIME ( #210, #153 ) ;
#156 = DIRECTION ( 'NONE',  ( 3.491481338843133355E-15, -1.224646799147353207E-16, 1.000000000000000000 ) ) ;
#157 = PERSON_AND_ORGANIZATION_ROLE ( 'creator' ) ;
#158 = APPROVAL ( #85, 'UNSPECIFIED' ) ;
#159 = FACE_OUTER_BOUND ( 'NONE', #167, .T. ) ;
#160 = CARTESIAN_POINT ( 'NONE',  ( 1.068957861474239953E-32, 0.1000000000000000056, 3.061616997868384713E-18 ) ) ;
#161 =( NAMED_UNIT ( * ) SI_UNIT ( $, .STERADIAN. ) SOLID_ANGLE_UNIT ( ) );
#162 = DIRECTION ( 'NONE',  ( 0.0000000000000000000, 1.000000000000000000, 0.0000000000000000000 ) ) ;
#163 = APPROVAL ( #193, 'UNSPECIFIED' ) ;
#164 = DIRECTION ( 'NONE',  ( 0.0000000000000000000, 1.000000000000000000, 0.0000000000000000000 ) ) ;
#165 = CIRCLE ( 'NONE', #129, 0.7500000000000011102 ) ;
#166 = ORIENTED_EDGE ( 'NONE', *, *, #116, .F. ) ;
#167 = EDGE_LOOP ( 'NONE', ( #168 ) ) ;
#168 = ORIENTED_EDGE ( 'NONE', *, *, #228, .T. ) ;
#169 = DIRECTION ( 'NONE',  ( -3.491481338843133355E-15, 1.224646799147353207E-16, -1.000000000000000000 ) ) ;
#170 = ADVANCED_FACE ( 'NONE', ( #173 ), #209, .T. ) ;
#171 = CARTESIAN_POINT ( 'NONE',  ( 7.197816643434953303E-15, 5.624099184981962608E-33, 2.061536621536083302 ) ) ;
#172 = AXIS2_PLACEMENT_3D ( 'NONE', #14, #192, #16 ) ;
#173 = FACE_OUTER_BOUND ( 'NONE', #147, .T. ) ;
#174 = ADVANCED_FACE ( 'NONE', ( #213, #84 ), #60, .F. ) ;
#175 = CIRCLE ( 'NONE', #206, 0.1000000000000000056 ) ;
#176 = LOCAL_TIME ( 7, 51, 36.00000000000000000, #72 ) ;
#177 = CARTESIAN_POINT ( 'NONE',  ( 1.187103655206665183E-14, 0.7500000000000006661, 3.399999999999999467 ) ) ;
#178 = CALENDAR_DATE ( 2021, 24, 11 ) ;
#179 = VERTEX_POINT ( 'NONE', #53 ) ;
#180 = PLANE ( 'NONE',  #114 ) ;
#181 = FACE_OUTER_BOUND ( 'NONE', #183, .T. ) ;
#182 = ORIENTED_EDGE ( 'NONE', *, *, #95, .T. ) ;
#183 = EDGE_LOOP ( 'NONE', ( #124 ) ) ;
#184 = EDGE_LOOP ( 'NONE', ( #27 ) ) ;
#185 = CIRCLE ( 'NONE', #220, 0.7499999999999998890 ) ;
#186 = PERSON_AND_ORGANIZATION_ROLE ( 'classification_officer' ) ;
#187 = AXIS2_PLACEMENT_3D ( 'NONE', #71, #13, #197 ) ;
#188 = APPLICATION_CONTEXT ( 'configuration controlled 3d designs of mechanical parts and assemblies' ) ;
#189 = ORGANIZATION ( 'UNSPECIFIED', 'UNSPECIFIED', '' ) ;
#190 = ADVANCED_FACE ( 'NONE', ( #159, #33 ), #235, .T. ) ;
#191 = CIRCLE ( 'NONE', #242, 1.500000000000003331 ) ;
#192 = DIRECTION ( 'NONE',  ( 0.0000000000000000000, 0.0000000000000000000, 1.000000000000000000 ) ) ;
#193 = APPROVAL_STATUS ( 'not_yet_approved' ) ;
#194 = CC_DESIGN_DATE_AND_TIME_ASSIGNMENT ( #15, #70, ( #1 ) ) ;
#195 =( NAMED_UNIT ( * ) PLANE_ANGLE_UNIT ( ) SI_UNIT ( $, .RADIAN. ) );
#196 = APPROVAL_ROLE ( '' ) ;
#197 = DIRECTION ( 'NONE',  ( 4.355100981429076768E-31, 1.000000000000000000, 1.224646799147353207E-16 ) ) ;
#198 = EDGE_LOOP ( 'NONE', ( #91 ) ) ;
#199 = DIRECTION ( 'NONE',  ( -3.491481338843133355E-15, 1.224646799147353207E-16, -1.000000000000000000 ) ) ;
#200 = DIRECTION ( 'NONE',  ( -3.491481338843133355E-15, 1.224646799147353207E-16, -1.000000000000000000 ) ) ;
#201 = CIRCLE ( 'NONE', #32, 1.499999999999996891 ) ;
#202 = ORIENTED_EDGE ( 'NONE', *, *, #121, .F. ) ;
#203 = DIRECTION ( 'NONE',  ( -3.491481338843133355E-15, 1.224646799147353207E-16, -1.000000000000000000 ) ) ;
#204 = COORDINATED_UNIVERSAL_TIME_OFFSET ( 1, 0, .AHEAD. ) ;
#205 = ADVANCED_FACE ( 'NONE', ( #21, #219 ), #56, .T. ) ;
#206 = AXIS2_PLACEMENT_3D ( 'NONE', #94, #169, #125 ) ;
#207 = CC_DESIGN_APPROVAL ( #158, ( #24 ) ) ;
#208 = SECURITY_CLASSIFICATION_LEVEL ( 'unclassified' ) ;
#209 = PLANE ( 'NONE',  #128 ) ;
#210 = DATE_AND_TIME ( #64, #103 ) ;
#211 = APPROVAL_PERSON_ORGANIZATION ( #45, #153, #226 ) ;
#212 = CARTESIAN_POINT ( 'NONE',  ( 0.0000000000000000000, 0.0000000000000000000, 0.0000000000000000000 ) ) ;
#213 = FACE_OUTER_BOUND ( 'NONE', #198, .T. ) ;
#214 = PERSON_AND_ORGANIZATION ( #216, #189 ) ;
#215 = CARTESIAN_POINT ( 'NONE',  ( 1.316288464743861212E-13, 1.499999999999998668, 37.69999999999999574 ) ) ;
#216 = PERSON ( 'UNSPECIFIED', 'UNSPECIFIED', 'UNSPECIFIED', ('UNSPECIFIED'), ('UNSPECIFIED'), ('UNSPECIFIED') ) ;
#217 = PERSON_AND_ORGANIZATION_ROLE ( 'design_owner' ) ;
#218 = ADVANCED_FACE ( 'NONE', ( #234, #69 ), #62, .T. ) ;
#219 = FACE_BOUND ( 'NONE', #88, .T. ) ;
#220 = AXIS2_PLACEMENT_3D ( 'NONE', #243, #200, #42 ) ;
#221 = CARTESIAN_POINT ( 'NONE',  ( -1.603436792211359313E-32, 5.624099184981965174E-34, -4.592425496802573602E-18 ) ) ;
#222 = CARTESIAN_POINT ( 'NONE',  ( 2.367900757518973625E-14, -8.305477824363904586E-16, 6.781937314617162649 ) ) ;
#223 = ORIENTED_EDGE ( 'NONE', *, *, #98, .F. ) ;
#224 = FACE_OUTER_BOUND ( 'NONE', #112, .T. ) ;
#225 = EDGE_LOOP ( 'NONE', ( #58 ) ) ;
#226 = APPROVAL_ROLE ( '' ) ;
#227 = MANIFOLD_SOLID_BREP ( 'Corps-Déplacer/Copier1[2]', #140 ) ;
#228 = EDGE_CURVE ( 'NONE', #101, #101, #165, .T. ) ;
#229 = PERSON_AND_ORGANIZATION ( #216, #189 ) ;
#230 = LOCAL_TIME ( 7, 51, 36.00000000000000000, #17 ) ;
#231 = APPROVAL_PERSON_ORGANIZATION ( #118, #163, #196 ) ;
#232 = DIRECTION ( 'NONE',  ( -4.275831445896958607E-31, -1.000000000000000000, -1.224646799147353207E-16 ) ) ;
#233 = COORDINATED_UNIVERSAL_TIME_OFFSET ( 1, 0, .AHEAD. ) ;
#234 = FACE_OUTER_BOUND ( 'NONE', #93, .T. ) ;
#235 = CYLINDRICAL_SURFACE ( 'NONE', #120, 0.7500000000000004441 ) ;
#236 = APPROVAL_ROLE ( '' ) ;
#237 = AXIS2_PLACEMENT_3D ( 'NONE', #23, #110, #25 ) ;
#238 =( GEOMETRIC_REPRESENTATION_CONTEXT ( 3 ) GLOBAL_UNCERTAINTY_ASSIGNED_CONTEXT ( ( #11 ) ) GLOBAL_UNIT_ASSIGNED_CONTEXT ( ( #119, #195, #161 ) ) REPRESENTATION_CONTEXT ( 'NONE', 'WORKASPACE' ) );
#239 = CC_DESIGN_PERSON_AND_ORGANIZATION_ASSIGNMENT ( #240, #217, ( #81 ) ) ;
#240 = PERSON_AND_ORGANIZATION ( #216, #189 ) ;
#241 = APPLICATION_PROTOCOL_DEFINITION ( 'international standard', 'config_control_design', 1994, #41 ) ;
#242 = AXIS2_PLACEMENT_3D ( 'NONE', #76, #199, #4 ) ;
#243 = CARTESIAN_POINT ( 'NONE',  ( 7.197816643434953303E-15, -2.524654224889212613E-16, 2.061536621536083302 ) ) ;
ENDSEC;
END-ISO-10303-21;
