ISO-10303-21;
HEADER;
FILE_DESCRIPTION (( 'STEP AP203' ),
    '1' );
FILE_NAME ('65850.step',
    '2021-11-24T06:51:35',
    ( '' ),
    ( '' ),
    'SwSTEP 2.0',
    'SolidWorks 2019',
    '' );
FILE_SCHEMA (( 'CONFIG_CONTROL_DESIGN' ));
ENDSEC;

DATA;
#1 = ADVANCED_FACE ( 'NONE', ( #113 ), #56, .T. ) ;
#2 = ORIENTED_EDGE ( 'NONE', *, *, #119, .T. ) ;
#3 = DIRECTION ( 'NONE',  ( -4.275831445896958607E-31, -1.000000000000000000, -1.224646799147353207E-16 ) ) ;
#4 = AXIS2_PLACEMENT_3D ( 'NONE', #12, #108, #217 ) ;
#5 = ADVANCED_FACE ( 'NONE', ( #153, #18 ), #232, .T. ) ;
#6 = MECHANICAL_CONTEXT ( 'NONE', #93, 'mechanical' ) ;
#7 = APPLICATION_CONTEXT ( 'configuration controlled 3d designs of mechanical parts and assemblies' ) ;
#8 = PERSON_AND_ORGANIZATION ( #226, #43 ) ;
#9 = SHAPE_DEFINITION_REPRESENTATION ( #229, #141 ) ;
#10 = AXIS2_PLACEMENT_3D ( 'NONE', #161, #64, #145 ) ;
#11 = DIRECTION ( 'NONE',  ( 4.275831445896959482E-31, 1.000000000000000000, 1.224646799147353207E-16 ) ) ;
#12 = CARTESIAN_POINT ( 'NONE',  ( 1.187103655206665183E-14, 0.0000000000000000000, 3.399999999999999911 ) ) ;
#13 = VERTEX_POINT ( 'NONE', #83 ) ;
#14 = DIRECTION ( 'NONE',  ( -3.491481338843133355E-15, 1.224646799147353207E-16, -1.000000000000000000 ) ) ;
#15 = CIRCLE ( 'NONE', #154, 0.7500000000000011102 ) ;
#16 = FACE_BOUND ( 'NONE', #117, .T. ) ;
#17 = FACE_OUTER_BOUND ( 'NONE', #132, .T. ) ;
#18 = FACE_OUTER_BOUND ( 'NONE', #191, .T. ) ;
#19 = EDGE_LOOP ( 'NONE', ( #134 ) ) ;
#20 = DIRECTION ( 'NONE',  ( -3.491481338843133355E-15, 1.224646799147353207E-16, -1.000000000000000000 ) ) ;
#21 = AXIS2_PLACEMENT_3D ( 'NONE', #88, #166, #159 ) ;
#22 = LOCAL_TIME ( 7, 51, 35.00000000000000000, #195 ) ;
#23 = ORIENTED_EDGE ( 'NONE', *, *, #133, .T. ) ;
#24 = DIRECTION ( 'NONE',  ( 4.275831445896958607E-31, 1.000000000000000000, 1.224646799147353207E-16 ) ) ;
#25 = EDGE_LOOP ( 'NONE', ( #2 ) ) ;
#26 = DATE_TIME_ROLE ( 'classification_date' ) ;
#27 = AXIS2_PLACEMENT_3D ( 'NONE', #69, #225, #38 ) ;
#28 = COORDINATED_UNIVERSAL_TIME_OFFSET ( 1, 0, .AHEAD. ) ;
#29 = CALENDAR_DATE ( 2021, 24, 11 ) ;
#30 = ADVANCED_FACE ( 'NONE', ( #185, #104 ), #130, .T. ) ;
#31 = SECURITY_CLASSIFICATION_LEVEL ( 'unclassified' ) ;
#32 = CC_DESIGN_PERSON_AND_ORGANIZATION_ASSIGNMENT ( #63, #120, ( #224 ) ) ;
#33 = FACE_OUTER_BOUND ( 'NONE', #190, .T. ) ;
#34 = ADVANCED_FACE ( 'NONE', ( #86, #219 ), #128, .T. ) ;
#35 = DIRECTION ( 'NONE',  ( 0.0000000000000000000, 1.000000000000000000, 0.0000000000000000000 ) ) ;
#36 = DIRECTION ( 'NONE',  ( 3.491481338843133355E-15, -1.224646799147353207E-16, 1.000000000000000000 ) ) ;
#37 =( NAMED_UNIT ( * ) PLANE_ANGLE_UNIT ( ) SI_UNIT ( $, .RADIAN. ) );
#38 = DIRECTION ( 'NONE',  ( 4.275831445896958607E-31, 1.000000000000000000, 1.224646799147353207E-16 ) ) ;
#39 = VERTEX_POINT ( 'NONE', #241 ) ;
#40 = ORIENTED_EDGE ( 'NONE', *, *, #180, .F. ) ;
#41 = AXIS2_PLACEMENT_3D ( 'NONE', #221, #36, #101 ) ;
#42 = APPROVAL ( #157, 'UNSPECIFIED' ) ;
#43 = ORGANIZATION ( 'UNSPECIFIED', 'UNSPECIFIED', '' ) ;
#44 = PERSON_AND_ORGANIZATION_ROLE ( 'creator' ) ;
#45 = CALENDAR_DATE ( 2021, 24, 11 ) ;
#46 = CIRCLE ( 'NONE', #75, 1.499999999999996891 ) ;
#47 = APPROVAL_PERSON_ORGANIZATION ( #160, #118, #182 ) ;
#48 = APPROVAL_ROLE ( '' ) ;
#49 = APPLICATION_PROTOCOL_DEFINITION ( 'international standard', 'config_control_design', 1994, #7 ) ;
#50 = FACE_OUTER_BOUND ( 'NONE', #207, .T. ) ;
#51 = DIRECTION ( 'NONE',  ( 4.275831445896958607E-31, 1.000000000000000000, 1.224646799147352961E-16 ) ) ;
#52 = VERTEX_POINT ( 'NONE', #186 ) ;
#53 = CARTESIAN_POINT ( 'NONE',  ( 2.367900757518973625E-14, -8.305477824363904586E-16, 6.781937314617162649 ) ) ;
#54 = CIRCLE ( 'NONE', #10, 1.500000000000003331 ) ;
#55 = CC_DESIGN_APPROVAL ( #95, ( #142 ) ) ;
#56 = PLANE ( 'NONE',  #187 ) ;
#57 = LOCAL_TIME ( 7, 51, 35.00000000000000000, #59 ) ;
#58 = APPROVAL_STATUS ( 'not_yet_approved' ) ;
#59 = COORDINATED_UNIVERSAL_TIME_OFFSET ( 1, 0, .AHEAD. ) ;
#60 = AXIS2_PLACEMENT_3D ( 'NONE', #73, #67, #112 ) ;
#61 = LOCAL_TIME ( 7, 51, 35.00000000000000000, #81 ) ;
#62 = FACE_OUTER_BOUND ( 'NONE', #243, .T. ) ;
#63 = PERSON_AND_ORGANIZATION ( #226, #43 ) ;
#64 = DIRECTION ( 'NONE',  ( -3.491481338843133355E-15, 1.224646799147353207E-16, -1.000000000000000000 ) ) ;
#65 = DIRECTION ( 'NONE',  ( -3.491481338843133355E-15, 1.224646799147353207E-16, -1.000000000000000000 ) ) ;
#66 = CARTESIAN_POINT ( 'NONE',  ( 7.474655745105531282E-15, -2.621756310461875793E-16, 2.140826491595164249 ) ) ;
#67 = DIRECTION ( 'NONE',  ( -3.491481338843133355E-15, 1.224646799147353207E-16, -1.000000000000000000 ) ) ;
#68 = VERTEX_POINT ( 'NONE', #184 ) ;
#69 = CARTESIAN_POINT ( 'NONE',  ( 0.0000000000000000000, 0.0000000000000000000, 0.0000000000000000000 ) ) ;
#70 = CIRCLE ( 'NONE', #121, 0.7500000000000000000 ) ;
#71 = ORIENTED_EDGE ( 'NONE', *, *, #136, .T. ) ;
#72 = ORIENTED_EDGE ( 'NONE', *, *, #198, .F. ) ;
#73 = CARTESIAN_POINT ( 'NONE',  ( 7.474655745105531282E-15, -2.621756310461875793E-16, 2.140826491595164249 ) ) ;
#74 = ORIENTED_EDGE ( 'NONE', *, *, #201, .T. ) ;
#75 = AXIS2_PLACEMENT_3D ( 'NONE', #53, #65, #168 ) ;
#76 = CC_DESIGN_APPROVAL ( #42, ( #197 ) ) ;
#77 = CARTESIAN_POINT ( 'NONE',  ( 0.0000000000000000000, 0.0000000000000000000, 0.0000000000000000000 ) ) ;
#78 = CC_DESIGN_PERSON_AND_ORGANIZATION_ASSIGNMENT ( #200, #155, ( #197 ) ) ;
#79 = PERSON_AND_ORGANIZATION ( #226, #43 ) ;
#80 = CARTESIAN_POINT ( 'NONE',  ( 0.0000000000000000000, 0.0000000000000000000, 0.0000000000000000000 ) ) ;
#81 = COORDINATED_UNIVERSAL_TIME_OFFSET ( 1, 0, .AHEAD. ) ;
#82 = DIRECTION ( 'NONE',  ( 0.0000000000000000000, 1.000000000000000000, 0.0000000000000000000 ) ) ;
#83 = CARTESIAN_POINT ( 'NONE',  ( 7.474655745105531282E-15, 0.7499999999999997780, 2.140826491595164249 ) ) ;
#84 = AXIS2_PLACEMENT_3D ( 'NONE', #114, #20, #24 ) ;
#85 = CC_DESIGN_SECURITY_CLASSIFICATION ( #197, ( #224 ) ) ;
#86 = FACE_OUTER_BOUND ( 'NONE', #192, .T. ) ;
#87 = CARTESIAN_POINT ( 'NONE',  ( 1.187103655206665183E-14, -4.163799117101000066E-16, 3.399999999999999467 ) ) ;
#88 = CARTESIAN_POINT ( 'NONE',  ( -2.137915722948479358E-32, 7.498798913309288894E-34, -6.123233995736766344E-18 ) ) ;
#89 = DIRECTION ( 'NONE',  ( -3.491481338843133355E-15, 1.224646799147353207E-16, -1.000000000000000000 ) ) ;
#90 = ORIENTED_EDGE ( 'NONE', *, *, #119, .F. ) ;
#91 = CC_DESIGN_PERSON_AND_ORGANIZATION_ASSIGNMENT ( #143, #100, ( #224 ) ) ;
#92 = ORIENTED_EDGE ( 'NONE', *, *, #180, .T. ) ;
#93 = APPLICATION_CONTEXT ( 'configuration controlled 3d designs of mechanical parts and assemblies' ) ;
#94 = EDGE_LOOP ( 'NONE', ( #194 ) ) ;
#95 = APPROVAL ( #178, 'UNSPECIFIED' ) ;
#96 = ADVANCED_FACE ( 'NONE', ( #189, #16 ), #231, .T. ) ;
#97 = UNCERTAINTY_MEASURE_WITH_UNIT (LENGTH_MEASURE( 1.000000000000000082E-05 ), #147, 'distance_accuracy_value', 'NONE');
#98 = CC_DESIGN_APPROVAL ( #118, ( #224 ) ) ;
#99 = APPROVAL_ROLE ( '' ) ;
#100 = PERSON_AND_ORGANIZATION_ROLE ( 'design_supplier' ) ;
#101 = DIRECTION ( 'NONE',  ( -4.275831445896958607E-31, -1.000000000000000000, -1.224646799147353207E-16 ) ) ;
#102 = DIRECTION ( 'NONE',  ( 1.000000000000000000, 0.0000000000000000000, 0.0000000000000000000 ) ) ;
#103 = CLOSED_SHELL ( 'NONE', ( #175, #96, #1 ) ) ;
#104 = FACE_BOUND ( 'NONE', #19, .T. ) ;
#105 = DESIGN_CONTEXT ( 'detailed design', #7, 'design' ) ;
#106 = VERTEX_POINT ( 'NONE', #239 ) ;
#107 = DIRECTION ( 'NONE',  ( -3.491481338843133355E-15, 1.224646799147353207E-16, -1.000000000000000000 ) ) ;
#108 = DIRECTION ( 'NONE',  ( -3.491481338843133355E-15, 1.224646799147353207E-16, -1.000000000000000000 ) ) ;
#109 = TOROIDAL_SURFACE ( 'NONE', #4, 8.750000000000000000, 8.000000000000000000 ) ;
#110 = DIRECTION ( 'NONE',  ( -3.491481338843133355E-15, 1.224646799147353207E-16, -1.000000000000000000 ) ) ;
#111 = DIRECTION ( 'NONE',  ( -4.275831445896958607E-31, -1.000000000000000000, -1.224646799147353207E-16 ) ) ;
#112 = DIRECTION ( 'NONE',  ( 0.0000000000000000000, 1.000000000000000000, 0.0000000000000000000 ) ) ;
#113 = FACE_OUTER_BOUND ( 'NONE', #208, .T. ) ;
#114 = CARTESIAN_POINT ( 'NONE',  ( 1.326762908760390423E-13, 8.998558695971103225E-33, 38.00000000000000000 ) ) ;
#115 = ORIENTED_EDGE ( 'NONE', *, *, #201, .F. ) ;
#116 = AXIS2_PLACEMENT_3D ( 'NONE', #167, #107, #51 ) ;
#117 = EDGE_LOOP ( 'NONE', ( #152 ) ) ;
#118 = APPROVAL ( #58, 'UNSPECIFIED' ) ;
#119 = EDGE_CURVE ( 'NONE', #106, #106, #54, .T. ) ;
#120 = PERSON_AND_ORGANIZATION_ROLE ( 'creator' ) ;
#121 = AXIS2_PLACEMENT_3D ( 'NONE', #66, #223, #35 ) ;
#122 = COORDINATED_UNIVERSAL_TIME_OFFSET ( 1, 0, .AHEAD. ) ;
#123 = DATE_AND_TIME ( #199, #131 ) ;
#124 = PRODUCT ( '65850', '65850', '', ( #6 ) ) ;
#125 = CALENDAR_DATE ( 2021, 24, 11 ) ;
#126 = CARTESIAN_POINT ( 'NONE',  ( 1.326762908760390423E-13, -4.653657836759941941E-15, 38.00000000000000000 ) ) ;
#127 = ADVANCED_FACE ( 'NONE', ( #193 ), #227, .F. ) ;
#128 = CYLINDRICAL_SURFACE ( 'NONE', #137, 1.500000000000000000 ) ;
#129 = VERTEX_POINT ( 'NONE', #218 ) ;
#130 = CONICAL_SURFACE ( 'NONE', #163, 1.200000000000003286, 0.7853981633974453924 ) ;
#131 = LOCAL_TIME ( 7, 51, 35.00000000000000000, #122 ) ;
#132 = EDGE_LOOP ( 'NONE', ( #72 ) ) ;
#133 = EDGE_CURVE ( 'NONE', #68, #68, #177, .T. ) ;
#134 = ORIENTED_EDGE ( 'NONE', *, *, #240, .T. ) ;
#135 = CARTESIAN_POINT ( 'NONE',  ( 7.474655745105531282E-15, -4.748648962153721488E-32, 2.140826491595164249 ) ) ;
#136 = EDGE_CURVE ( 'NONE', #129, #129, #216, .T. ) ;
#137 = AXIS2_PLACEMENT_3D ( 'NONE', #80, #110, #11 ) ;
#138 = PERSON_AND_ORGANIZATION ( #226, #43 ) ;
#139 = AXIS2_PLACEMENT_3D ( 'NONE', #188, #222, #111 ) ;
#140 = DATE_AND_TIME ( #125, #57 ) ;
#141 = ADVANCED_BREP_SHAPE_REPRESENTATION ( '65850', ( #228, #144, #211 ), #150 ) ;
#142 = PRODUCT_DEFINITION ( 'UNKNOWN', '', #224, #105 ) ;
#143 = PERSON_AND_ORGANIZATION ( #226, #43 ) ;
#144 = MANIFOLD_SOLID_BREP ( 'Corps-Déplacer/Copier1[2]', #103 ) ;
#145 = DIRECTION ( 'NONE',  ( 0.0000000000000000000, 1.000000000000000000, 0.0000000000000000000 ) ) ;
#146 = DIRECTION ( 'NONE',  ( 0.0000000000000000000, 1.000000000000000000, 0.0000000000000000000 ) ) ;
#147 =( LENGTH_UNIT ( ) NAMED_UNIT ( * ) SI_UNIT ( .MILLI., .METRE. ) );
#148 = PRODUCT_RELATED_PRODUCT_CATEGORY ( 'detail', '', ( #124 ) ) ;
#149 = PLANE ( 'NONE',  #139 ) ;
#150 =( GEOMETRIC_REPRESENTATION_CONTEXT ( 3 ) GLOBAL_UNCERTAINTY_ASSIGNED_CONTEXT ( ( #97 ) ) GLOBAL_UNIT_ASSIGNED_CONTEXT ( ( #147, #37, #165 ) ) REPRESENTATION_CONTEXT ( 'NONE', 'WORKASPACE' ) );
#151 = CC_DESIGN_DATE_AND_TIME_ASSIGNMENT ( #212, #181, ( #142 ) ) ;
#152 = ORIENTED_EDGE ( 'NONE', *, *, #136, .F. ) ;
#153 = FACE_OUTER_BOUND ( 'NONE', #94, .T. ) ;
#154 = AXIS2_PLACEMENT_3D ( 'NONE', #87, #89, #146 ) ;
#155 = PERSON_AND_ORGANIZATION_ROLE ( 'classification_officer' ) ;
#156 = DIRECTION ( 'NONE',  ( 0.0000000000000000000, 0.0000000000000000000, 1.000000000000000000 ) ) ;
#157 = APPROVAL_STATUS ( 'not_yet_approved' ) ;
#158 = DATE_AND_TIME ( #29, #22 ) ;
#159 = DIRECTION ( 'NONE',  ( -4.275831445896959482E-31, -1.000000000000000000, -1.224646799147352961E-16 ) ) ;
#160 = PERSON_AND_ORGANIZATION ( #226, #43 ) ;
#161 = CARTESIAN_POINT ( 'NONE',  ( 1.316288464743861212E-13, -4.616918432785521081E-15, 37.69999999999999574 ) ) ;
#162 = CARTESIAN_POINT ( 'NONE',  ( 1.326762908760390423E-13, 1.199999999999998845, 38.00000000000000000 ) ) ;
#163 = AXIS2_PLACEMENT_3D ( 'NONE', #237, #14, #183 ) ;
#164 = APPROVAL_PERSON_ORGANIZATION ( #138, #42, #99 ) ;
#165 =( NAMED_UNIT ( * ) SI_UNIT ( $, .STERADIAN. ) SOLID_ANGLE_UNIT ( ) );
#166 = DIRECTION ( 'NONE',  ( 3.491481338843133355E-15, -1.224646799147353207E-16, 1.000000000000000000 ) ) ;
#167 = CARTESIAN_POINT ( 'NONE',  ( -2.137915722948479358E-32, 7.498798913309288894E-34, -6.123233995736766344E-18 ) ) ;
#168 = DIRECTION ( 'NONE',  ( 0.0000000000000000000, 1.000000000000000000, 0.0000000000000000000 ) ) ;
#169 = ORIENTED_EDGE ( 'NONE', *, *, #240, .F. ) ;
#170 = CC_DESIGN_PERSON_AND_ORGANIZATION_ASSIGNMENT ( #79, #44, ( #142 ) ) ;
#171 = APPROVAL_PERSON_ORGANIZATION ( #8, #95, #48 ) ;
#172 = EDGE_LOOP ( 'NONE', ( #90 ) ) ;
#173 = DIRECTION ( 'NONE',  ( 3.491481338843133355E-15, -1.224646799147353207E-16, 1.000000000000000000 ) ) ;
#174 = CIRCLE ( 'NONE', #203, 1.200000000000003286 ) ;
#175 = ADVANCED_FACE ( 'NONE', ( #62 ), #215, .F. ) ;
#176 = CALENDAR_DATE ( 2021, 24, 11 ) ;
#177 = CIRCLE ( 'NONE', #60, 0.7500000000000000000 ) ;
#178 = APPROVAL_STATUS ( 'not_yet_approved' ) ;
#179 = DATE_AND_TIME ( #176, #205 ) ;
#180 = EDGE_CURVE ( 'NONE', #13, #13, #70, .T. ) ;
#181 = DATE_TIME_ROLE ( 'creation_date' ) ;
#182 = APPROVAL_ROLE ( '' ) ;
#183 = DIRECTION ( 'NONE',  ( 0.0000000000000000000, 1.000000000000000000, 0.0000000000000000000 ) ) ;
#184 = CARTESIAN_POINT ( 'NONE',  ( 7.474655745105531282E-15, 0.7499999999999997780, 2.140826491595164249 ) ) ;
#185 = FACE_OUTER_BOUND ( 'NONE', #172, .T. ) ;
#186 = CARTESIAN_POINT ( 'NONE',  ( 1.187103655206665183E-14, 0.7500000000000006661, 3.399999999999999467 ) ) ;
#187 = AXIS2_PLACEMENT_3D ( 'NONE', #135, #173, #3 ) ;
#188 = CARTESIAN_POINT ( 'NONE',  ( 7.474655745105531282E-15, -4.748648962153721488E-32, 2.140826491595164249 ) ) ;
#189 = FACE_OUTER_BOUND ( 'NONE', #230, .T. ) ;
#190 = EDGE_LOOP ( 'NONE', ( #74 ) ) ;
#191 = EDGE_LOOP ( 'NONE', ( #40 ) ) ;
#192 = EDGE_LOOP ( 'NONE', ( #115 ) ) ;
#193 = FACE_OUTER_BOUND ( 'NONE', #206, .T. ) ;
#194 = ORIENTED_EDGE ( 'NONE', *, *, #198, .T. ) ;
#195 = COORDINATED_UNIVERSAL_TIME_OFFSET ( 1, 0, .AHEAD. ) ;
#196 = CLOSED_SHELL ( 'NONE', ( #233, #5, #220, #34, #30, #127 ) ) ;
#197 = SECURITY_CLASSIFICATION ( '', '', #31 ) ;
#198 = EDGE_CURVE ( 'NONE', #52, #52, #15, .T. ) ;
#199 = CALENDAR_DATE ( 2021, 24, 11 ) ;
#200 = PERSON_AND_ORGANIZATION ( #226, #43 ) ;
#201 = EDGE_CURVE ( 'NONE', #39, #39, #46, .T. ) ;
#202 = VERTEX_POINT ( 'NONE', #162 ) ;
#203 = AXIS2_PLACEMENT_3D ( 'NONE', #126, #204, #82 ) ;
#204 = DIRECTION ( 'NONE',  ( -3.491481338843133355E-15, 1.224646799147353207E-16, -1.000000000000000000 ) ) ;
#205 = LOCAL_TIME ( 7, 51, 35.00000000000000000, #28 ) ;
#206 = EDGE_LOOP ( 'NONE', ( #169 ) ) ;
#207 = EDGE_LOOP ( 'NONE', ( #92 ) ) ;
#208 = EDGE_LOOP ( 'NONE', ( #242 ) ) ;
#209 = CC_DESIGN_DATE_AND_TIME_ASSIGNMENT ( #158, #26, ( #197 ) ) ;
#210 = CC_DESIGN_PERSON_AND_ORGANIZATION_ASSIGNMENT ( #213, #214, ( #124 ) ) ;
#211 = AXIS2_PLACEMENT_3D ( 'NONE', #77, #156, #102 ) ;
#212 = DATE_AND_TIME ( #45, #61 ) ;
#213 = PERSON_AND_ORGANIZATION ( #226, #43 ) ;
#214 = PERSON_AND_ORGANIZATION_ROLE ( 'design_owner' ) ;
#215 = PLANE ( 'NONE',  #41 ) ;
#216 = CIRCLE ( 'NONE', #116, 0.07499999999999999722 ) ;
#217 = DIRECTION ( 'NONE',  ( 4.355100981429076768E-31, 1.000000000000000000, 1.224646799147353207E-16 ) ) ;
#218 = CARTESIAN_POINT ( 'NONE',  ( 1.068957861474239405E-32, 0.07499999999999999722, 3.061616997868381631E-18 ) ) ;
#219 = FACE_OUTER_BOUND ( 'NONE', #25, .T. ) ;
#220 = ADVANCED_FACE ( 'NONE', ( #33, #17 ), #109, .F. ) ;
#221 = CARTESIAN_POINT ( 'NONE',  ( -1.068957861474239679E-32, 3.749399456654644447E-34, -3.061616997868383172E-18 ) ) ;
#222 = DIRECTION ( 'NONE',  ( 3.491481338843133355E-15, -1.224646799147353207E-16, 1.000000000000000000 ) ) ;
#223 = DIRECTION ( 'NONE',  ( -3.491481338843133355E-15, 1.224646799147353207E-16, -1.000000000000000000 ) ) ;
#224 = PRODUCT_DEFINITION_FORMATION_WITH_SPECIFIED_SOURCE ( 'ANY', '', #124, .NOT_KNOWN. ) ;
#225 = DIRECTION ( 'NONE',  ( -3.491481338843133355E-15, 1.224646799147353207E-16, -1.000000000000000000 ) ) ;
#226 = PERSON ( 'UNSPECIFIED', 'UNSPECIFIED', 'UNSPECIFIED', ('UNSPECIFIED'), ('UNSPECIFIED'), ('UNSPECIFIED') ) ;
#227 = PLANE ( 'NONE',  #84 ) ;
#228 = MANIFOLD_SOLID_BREP ( 'Corps-Déplacer/Copier1[1]', #196 ) ;
#229 = PRODUCT_DEFINITION_SHAPE ( 'NONE', 'NONE',  #142 ) ;
#230 = EDGE_LOOP ( 'NONE', ( #23 ) ) ;
#231 = CONICAL_SURFACE ( 'NONE', #21, 0.07499999999999999722, 0.3054326190990082623 ) ;
#232 = CYLINDRICAL_SURFACE ( 'NONE', #27, 0.7500000000000005551 ) ;
#233 = ADVANCED_FACE ( 'NONE', ( #50 ), #149, .F. ) ;
#234 = APPROVAL_DATE_TIME ( #140, #95 ) ;
#235 = APPLICATION_PROTOCOL_DEFINITION ( 'international standard', 'config_control_design', 1994, #93 ) ;
#236 = APPROVAL_DATE_TIME ( #179, #42 ) ;
#237 = CARTESIAN_POINT ( 'NONE',  ( 1.326762908760390423E-13, -4.653657836759941941E-15, 38.00000000000000000 ) ) ;
#238 = APPROVAL_DATE_TIME ( #123, #118 ) ;
#239 = CARTESIAN_POINT ( 'NONE',  ( 1.316288464743861212E-13, 1.499999999999998668, 37.69999999999999574 ) ) ;
#240 = EDGE_CURVE ( 'NONE', #202, #202, #174, .T. ) ;
#241 = CARTESIAN_POINT ( 'NONE',  ( 2.367900757518973625E-14, 1.499999999999996225, 6.781937314617162649 ) ) ;
#242 = ORIENTED_EDGE ( 'NONE', *, *, #133, .F. ) ;
#243 = EDGE_LOOP ( 'NONE', ( #71 ) ) ;
ENDSEC;
END-ISO-10303-21;
