ISO-10303-21;
HEADER;
FILE_DESCRIPTION (( 'STEP AP203' ),
    '1' );
FILE_NAME ('65848.step',
    '2021-11-24T06:51:35',
    ( '' ),
    ( '' ),
    'SwSTEP 2.0',
    'SolidWorks 2019',
    '' );
FILE_SCHEMA (( 'CONFIG_CONTROL_DESIGN' ));
ENDSEC;

DATA;
#1 = APPROVAL ( #137, 'UNSPECIFIED' ) ;
#2 = APPROVAL ( #219, 'UNSPECIFIED' ) ;
#3 = DIRECTION ( 'NONE',  ( 0.0000000000000000000, 1.000000000000000000, 0.0000000000000000000 ) ) ;
#4 = AXIS2_PLACEMENT_3D ( 'NONE', #23, #178, #142 ) ;
#5 = FACE_OUTER_BOUND ( 'NONE', #233, .T. ) ;
#6 = DIRECTION ( 'NONE',  ( -3.491481338843133355E-15, 1.224646799147353207E-16, -1.000000000000000000 ) ) ;
#7 = VERTEX_POINT ( 'NONE', #68 ) ;
#8 = CARTESIAN_POINT ( 'NONE',  ( 7.751494846776102950E-15, 5.624099184981961240E-33, 2.220116361654243420 ) ) ;
#9 = EDGE_LOOP ( 'NONE', ( #53 ) ) ;
#10 = DATE_AND_TIME ( #167, #18 ) ;
#11 = ORIENTED_EDGE ( 'NONE', *, *, #28, .T. ) ;
#12 = APPLICATION_PROTOCOL_DEFINITION ( 'international standard', 'config_control_design', 1994, #90 ) ;
#13 = CC_DESIGN_SECURITY_CLASSIFICATION ( #225, ( #76 ) ) ;
#14 = VERTEX_POINT ( 'NONE', #95 ) ;
#15 = PRODUCT_DEFINITION ( 'UNKNOWN', '', #76, #234 ) ;
#16 = DIRECTION ( 'NONE',  ( 0.0000000000000000000, 1.000000000000000000, 0.0000000000000000000 ) ) ;
#17 = CARTESIAN_POINT ( 'NONE',  ( 1.326762908760390423E-13, 8.998558695971103225E-33, 38.00000000000000000 ) ) ;
#18 = LOCAL_TIME ( 7, 51, 35.00000000000000000, #149 ) ;
#19 = DIRECTION ( 'NONE',  ( 0.0000000000000000000, 1.000000000000000000, 0.0000000000000000000 ) ) ;
#20 = DIRECTION ( 'NONE',  ( 3.491481338843133355E-15, -1.224646799147353207E-16, 1.000000000000000000 ) ) ;
#21 = LOCAL_TIME ( 7, 51, 35.00000000000000000, #132 ) ;
#22 = ADVANCED_FACE ( 'NONE', ( #66 ), #148, .F. ) ;
#23 = CARTESIAN_POINT ( 'NONE',  ( 7.751494846776102950E-15, -2.718858396034536508E-16, 2.220116361654243420 ) ) ;
#24 = UNCERTAINTY_MEASURE_WITH_UNIT (LENGTH_MEASURE( 1.000000000000000082E-05 ), #111, 'distance_accuracy_value', 'NONE');
#25 = DATE_TIME_ROLE ( 'creation_date' ) ;
#26 = FACE_OUTER_BOUND ( 'NONE', #230, .T. ) ;
#27 = ORIENTED_EDGE ( 'NONE', *, *, #115, .F. ) ;
#28 = EDGE_CURVE ( 'NONE', #122, #122, #242, .T. ) ;
#29 = CIRCLE ( 'NONE', #213, 1.200000000000003286 ) ;
#30 = VERTEX_POINT ( 'NONE', #198 ) ;
#31 = ORIENTED_EDGE ( 'NONE', *, *, #57, .F. ) ;
#32 = APPROVAL_DATE_TIME ( #202, #2 ) ;
#33 = ORIENTED_EDGE ( 'NONE', *, *, #28, .F. ) ;
#34 = CARTESIAN_POINT ( 'NONE',  ( -8.551662891793918527E-33, 2.999519565323715729E-34, -2.449293598294706769E-18 ) ) ;
#35 = EDGE_CURVE ( 'NONE', #154, #154, #40, .T. ) ;
#36 = ADVANCED_FACE ( 'NONE', ( #101, #120 ), #175, .T. ) ;
#37 = LOCAL_TIME ( 7, 51, 35.00000000000000000, #224 ) ;
#38 = DIRECTION ( 'NONE',  ( 3.491481338843133355E-15, -1.224646799147353207E-16, 1.000000000000000000 ) ) ;
#39 = DIRECTION ( 'NONE',  ( -4.275831445896958607E-31, -1.000000000000000000, -1.224646799147353207E-16 ) ) ;
#40 = CIRCLE ( 'NONE', #207, 1.499999999999996891 ) ;
#41 = DIRECTION ( 'NONE',  ( -3.491481338843133355E-15, 1.224646799147353207E-16, -1.000000000000000000 ) ) ;
#42 = FACE_OUTER_BOUND ( 'NONE', #166, .T. ) ;
#43 = DIRECTION ( 'NONE',  ( -4.275831445896958607E-31, -1.000000000000000000, -1.224646799147353207E-16 ) ) ;
#44 = CLOSED_SHELL ( 'NONE', ( #226, #78, #191 ) ) ;
#45 = DIRECTION ( 'NONE',  ( 4.275831445896958607E-31, 1.000000000000000000, 1.224646799147353207E-16 ) ) ;
#46 = MANIFOLD_SOLID_BREP ( 'Corps-Déplacer/Copier1[1]', #227 ) ;
#47 = EDGE_LOOP ( 'NONE', ( #146 ) ) ;
#48 = DATE_TIME_ROLE ( 'classification_date' ) ;
#49 = CC_DESIGN_PERSON_AND_ORGANIZATION_ASSIGNMENT ( #144, #179, ( #15 ) ) ;
#50 = ORIENTED_EDGE ( 'NONE', *, *, #57, .T. ) ;
#51 = APPROVAL_PERSON_ORGANIZATION ( #84, #2, #52 ) ;
#52 = APPROVAL_ROLE ( '' ) ;
#53 = ORIENTED_EDGE ( 'NONE', *, *, #35, .F. ) ;
#54 = APPLICATION_PROTOCOL_DEFINITION ( 'international standard', 'config_control_design', 1994, #107 ) ;
#55 = FACE_OUTER_BOUND ( 'NONE', #220, .T. ) ;
#56 = CIRCLE ( 'NONE', #4, 0.7500000000000000000 ) ;
#57 = EDGE_CURVE ( 'NONE', #118, #118, #80, .T. ) ;
#58 = CC_DESIGN_APPROVAL ( #92, ( #15 ) ) ;
#59 = DIRECTION ( 'NONE',  ( 0.0000000000000000000, 1.000000000000000000, 0.0000000000000000000 ) ) ;
#60 = ADVANCED_FACE ( 'NONE', ( #77 ), #190, .F. ) ;
#61 = CARTESIAN_POINT ( 'NONE',  ( 1.326762908760390423E-13, -4.653657836759941941E-15, 38.00000000000000000 ) ) ;
#62 = DATE_AND_TIME ( #165, #136 ) ;
#63 = CARTESIAN_POINT ( 'NONE',  ( -1.710332578358783705E-32, 5.999039130647431458E-34, -4.898587196589413537E-18 ) ) ;
#64 = AXIS2_PLACEMENT_3D ( 'NONE', #63, #20, #106 ) ;
#65 = PERSON_AND_ORGANIZATION_ROLE ( 'design_supplier' ) ;
#66 = FACE_OUTER_BOUND ( 'NONE', #130, .T. ) ;
#67 = DIRECTION ( 'NONE',  ( -4.275831445896958607E-31, -1.000000000000000000, -1.224646799147353207E-16 ) ) ;
#68 = CARTESIAN_POINT ( 'NONE',  ( 7.751494846776102950E-15, 0.7499999999999996669, 2.220116361654243420 ) ) ;
#69 = ORIENTED_EDGE ( 'NONE', *, *, #97, .F. ) ;
#70 = PERSON_AND_ORGANIZATION ( #174, #156 ) ;
#71 = PERSON_AND_ORGANIZATION ( #174, #156 ) ;
#72 = DIRECTION ( 'NONE',  ( 3.491481338843133355E-15, -1.224646799147353207E-16, 1.000000000000000000 ) ) ;
#73 = CARTESIAN_POINT ( 'NONE',  ( 7.751494846776102950E-15, 0.7499999999999996669, 2.220116361654243420 ) ) ;
#74 = AXIS2_PLACEMENT_3D ( 'NONE', #34, #72, #67 ) ;
#75 = CC_DESIGN_PERSON_AND_ORGANIZATION_ASSIGNMENT ( #181, #65, ( #76 ) ) ;
#76 = PRODUCT_DEFINITION_FORMATION_WITH_SPECIFIED_SOURCE ( 'ANY', '', #91, .NOT_KNOWN. ) ;
#77 = FACE_OUTER_BOUND ( 'NONE', #143, .T. ) ;
#78 = ADVANCED_FACE ( 'NONE', ( #42, #182 ), #104, .T. ) ;
#79 = DIRECTION ( 'NONE',  ( -3.491481338843133355E-15, 1.224646799147353207E-16, -1.000000000000000000 ) ) ;
#80 = CIRCLE ( 'NONE', #241, 0.7500000000000011102 ) ;
#81 =( NAMED_UNIT ( * ) PLANE_ANGLE_UNIT ( ) SI_UNIT ( $, .RADIAN. ) );
#82 = DIRECTION ( 'NONE',  ( 0.0000000000000000000, 1.000000000000000000, 0.0000000000000000000 ) ) ;
#83 = EDGE_LOOP ( 'NONE', ( #195 ) ) ;
#84 = PERSON_AND_ORGANIZATION ( #174, #156 ) ;
#85 = ORIENTED_EDGE ( 'NONE', *, *, #236, .F. ) ;
#86 = CONICAL_SURFACE ( 'NONE', #168, 1.200000000000003286, 0.7853981633974453924 ) ;
#87 = DIRECTION ( 'NONE',  ( 1.000000000000000000, 0.0000000000000000000, 0.0000000000000000000 ) ) ;
#88 = PERSON_AND_ORGANIZATION ( #174, #156 ) ;
#89 = APPROVAL_DATE_TIME ( #62, #92 ) ;
#90 = APPLICATION_CONTEXT ( 'configuration controlled 3d designs of mechanical parts and assemblies' ) ;
#91 = PRODUCT ( '65848', '65848', '', ( #199 ) ) ;
#92 = APPROVAL ( #163, 'UNSPECIFIED' ) ;
#93 = APPROVAL_DATE_TIME ( #206, #1 ) ;
#94 = CC_DESIGN_APPROVAL ( #2, ( #76 ) ) ;
#95 = CARTESIAN_POINT ( 'NONE',  ( 4.275831445896955842E-33, 0.05000000000000000278, 1.224646799147352614E-18 ) ) ;
#96 = CARTESIAN_POINT ( 'NONE',  ( 1.187103655206665183E-14, -4.163799117101000066E-16, 3.399999999999999467 ) ) ;
#97 = EDGE_CURVE ( 'NONE', #14, #14, #162, .T. ) ;
#98 = AXIS2_PLACEMENT_3D ( 'NONE', #8, #211, #43 ) ;
#99 = DIRECTION ( 'NONE',  ( -3.491481338843133355E-15, 1.224646799147353207E-16, -1.000000000000000000 ) ) ;
#100 = PRODUCT_RELATED_PRODUCT_CATEGORY ( 'detail', '', ( #91 ) ) ;
#101 = FACE_OUTER_BOUND ( 'NONE', #9, .T. ) ;
#102 = APPROVAL_PERSON_ORGANIZATION ( #134, #92, #183 ) ;
#103 = DIRECTION ( 'NONE',  ( -3.491481338843133355E-15, 1.224646799147353207E-16, -1.000000000000000000 ) ) ;
#104 = CONICAL_SURFACE ( 'NONE', #64, 0.05000000000000000278, 0.3054326190990083734 ) ;
#105 = DIRECTION ( 'NONE',  ( 0.0000000000000000000, 0.0000000000000000000, 1.000000000000000000 ) ) ;
#106 = DIRECTION ( 'NONE',  ( -4.275831445896958607E-31, -1.000000000000000000, -1.224646799147353207E-16 ) ) ;
#107 = APPLICATION_CONTEXT ( 'configuration controlled 3d designs of mechanical parts and assemblies' ) ;
#108 = CALENDAR_DATE ( 2021, 24, 11 ) ;
#109 = PLANE ( 'NONE',  #98 ) ;
#110 = EDGE_LOOP ( 'NONE', ( #33 ) ) ;
#111 =( LENGTH_UNIT ( ) NAMED_UNIT ( * ) SI_UNIT ( .MILLI., .METRE. ) );
#112 = CARTESIAN_POINT ( 'NONE',  ( 1.316288464743861212E-13, -4.616918432785521081E-15, 37.69999999999999574 ) ) ;
#113 = AXIS2_PLACEMENT_3D ( 'NONE', #112, #217, #16 ) ;
#114 = VERTEX_POINT ( 'NONE', #239 ) ;
#115 = EDGE_CURVE ( 'NONE', #7, #7, #56, .T. ) ;
#116 = DIRECTION ( 'NONE',  ( -3.491481338843133355E-15, 1.224646799147353207E-16, -1.000000000000000000 ) ) ;
#117 = AXIS2_PLACEMENT_3D ( 'NONE', #173, #38, #39 ) ;
#118 = VERTEX_POINT ( 'NONE', #188 ) ;
#119 = AXIS2_PLACEMENT_3D ( 'NONE', #17, #99, #172 ) ;
#120 = FACE_OUTER_BOUND ( 'NONE', #83, .T. ) ;
#121 = CARTESIAN_POINT ( 'NONE',  ( 0.0000000000000000000, 0.0000000000000000000, 0.0000000000000000000 ) ) ;
#122 = VERTEX_POINT ( 'NONE', #73 ) ;
#123 = FACE_OUTER_BOUND ( 'NONE', #47, .T. ) ;
#124 = FACE_BOUND ( 'NONE', #150, .T. ) ;
#125 = ADVANCED_FACE ( 'NONE', ( #123, #5 ), #177, .F. ) ;
#126 = CYLINDRICAL_SURFACE ( 'NONE', #184, 0.7500000000000005551 ) ;
#127 = ORIENTED_EDGE ( 'NONE', *, *, #115, .T. ) ;
#128 =( NAMED_UNIT ( * ) SI_UNIT ( $, .STERADIAN. ) SOLID_ANGLE_UNIT ( ) );
#129 = PRODUCT_DEFINITION_SHAPE ( 'NONE', 'NONE',  #15 ) ;
#130 = EDGE_LOOP ( 'NONE', ( #11 ) ) ;
#131 = CC_DESIGN_APPROVAL ( #1, ( #225 ) ) ;
#132 = COORDINATED_UNIVERSAL_TIME_OFFSET ( 1, 0, .AHEAD. ) ;
#133 = ORIENTED_EDGE ( 'NONE', *, *, #97, .T. ) ;
#134 = PERSON_AND_ORGANIZATION ( #174, #156 ) ;
#135 = MANIFOLD_SOLID_BREP ( 'Corps-Déplacer/Copier1[2]', #44 ) ;
#136 = LOCAL_TIME ( 7, 51, 35.00000000000000000, #231 ) ;
#137 = APPROVAL_STATUS ( 'not_yet_approved' ) ;
#138 =( GEOMETRIC_REPRESENTATION_CONTEXT ( 3 ) GLOBAL_UNCERTAINTY_ASSIGNED_CONTEXT ( ( #24 ) ) GLOBAL_UNIT_ASSIGNED_CONTEXT ( ( #111, #81, #128 ) ) REPRESENTATION_CONTEXT ( 'NONE', 'WORKASPACE' ) );
#139 = CARTESIAN_POINT ( 'NONE',  ( 7.751494846776102950E-15, -2.718858396034536508E-16, 2.220116361654243420 ) ) ;
#140 = CC_DESIGN_PERSON_AND_ORGANIZATION_ASSIGNMENT ( #88, #196, ( #91 ) ) ;
#141 = AXIS2_PLACEMENT_3D ( 'NONE', #121, #79, #189 ) ;
#142 = DIRECTION ( 'NONE',  ( 0.0000000000000000000, 1.000000000000000000, 0.0000000000000000000 ) ) ;
#143 = EDGE_LOOP ( 'NONE', ( #215 ) ) ;
#144 = PERSON_AND_ORGANIZATION ( #174, #156 ) ;
#145 = DIRECTION ( 'NONE',  ( 4.275831445896958607E-31, 1.000000000000000000, 1.224646799147353207E-16 ) ) ;
#146 = ORIENTED_EDGE ( 'NONE', *, *, #35, .T. ) ;
#147 = CALENDAR_DATE ( 2021, 24, 11 ) ;
#148 = PLANE ( 'NONE',  #117 ) ;
#149 = COORDINATED_UNIVERSAL_TIME_OFFSET ( 1, 0, .AHEAD. ) ;
#150 = EDGE_LOOP ( 'NONE', ( #238 ) ) ;
#151 = CALENDAR_DATE ( 2021, 24, 11 ) ;
#152 = AXIS2_PLACEMENT_3D ( 'NONE', #139, #208, #3 ) ;
#153 = SHAPE_DEFINITION_REPRESENTATION ( #129, #169 ) ;
#154 = VERTEX_POINT ( 'NONE', #223 ) ;
#155 = EDGE_CURVE ( 'NONE', #30, #30, #29, .T. ) ;
#156 = ORGANIZATION ( 'UNSPECIFIED', 'UNSPECIFIED', '' ) ;
#157 = CARTESIAN_POINT ( 'NONE',  ( 1.187103655206665183E-14, 0.0000000000000000000, 3.399999999999999911 ) ) ;
#158 = EDGE_LOOP ( 'NONE', ( #85 ) ) ;
#159 = PERSON_AND_ORGANIZATION_ROLE ( 'creator' ) ;
#160 = FACE_OUTER_BOUND ( 'NONE', #218, .T. ) ;
#161 = PERSON_AND_ORGANIZATION_ROLE ( 'classification_officer' ) ;
#162 = CIRCLE ( 'NONE', #193, 0.05000000000000000278 ) ;
#163 = APPROVAL_STATUS ( 'not_yet_approved' ) ;
#164 = CC_DESIGN_DATE_AND_TIME_ASSIGNMENT ( #10, #25, ( #15 ) ) ;
#165 = CALENDAR_DATE ( 2021, 24, 11 ) ;
#166 = EDGE_LOOP ( 'NONE', ( #127 ) ) ;
#167 = CALENDAR_DATE ( 2021, 24, 11 ) ;
#168 = AXIS2_PLACEMENT_3D ( 'NONE', #194, #116, #170 ) ;
#169 = ADVANCED_BREP_SHAPE_REPRESENTATION ( '65848', ( #46, #135, #222 ), #138 ) ;
#170 = DIRECTION ( 'NONE',  ( 0.0000000000000000000, 1.000000000000000000, 0.0000000000000000000 ) ) ;
#171 = DIRECTION ( 'NONE',  ( -3.491481338843133355E-15, 1.224646799147353207E-16, -1.000000000000000000 ) ) ;
#172 = DIRECTION ( 'NONE',  ( 4.275831445896958607E-31, 1.000000000000000000, 1.224646799147353207E-16 ) ) ;
#173 = CARTESIAN_POINT ( 'NONE',  ( 7.751494846776102950E-15, 5.624099184981961240E-33, 2.220116361654243420 ) ) ;
#174 = PERSON ( 'UNSPECIFIED', 'UNSPECIFIED', 'UNSPECIFIED', ('UNSPECIFIED'), ('UNSPECIFIED'), ('UNSPECIFIED') ) ;
#175 = CYLINDRICAL_SURFACE ( 'NONE', #141, 1.500000000000000000 ) ;
#176 = CC_DESIGN_DATE_AND_TIME_ASSIGNMENT ( #216, #48, ( #225 ) ) ;
#177 = TOROIDAL_SURFACE ( 'NONE', #235, 8.750000000000000000, 8.000000000000000000 ) ;
#178 = DIRECTION ( 'NONE',  ( -3.491481338843133355E-15, 1.224646799147353207E-16, -1.000000000000000000 ) ) ;
#179 = PERSON_AND_ORGANIZATION_ROLE ( 'creator' ) ;
#180 = DIRECTION ( 'NONE',  ( -3.491481338843133355E-15, 1.224646799147353207E-16, -1.000000000000000000 ) ) ;
#181 = PERSON_AND_ORGANIZATION ( #174, #156 ) ;
#182 = FACE_BOUND ( 'NONE', #201, .T. ) ;
#183 = APPROVAL_ROLE ( '' ) ;
#184 = AXIS2_PLACEMENT_3D ( 'NONE', #212, #232, #145 ) ;
#185 = CARTESIAN_POINT ( 'NONE',  ( 0.0000000000000000000, 0.0000000000000000000, 0.0000000000000000000 ) ) ;
#186 = ADVANCED_FACE ( 'NONE', ( #160, #192 ), #126, .T. ) ;
#187 = APPROVAL_ROLE ( '' ) ;
#188 = CARTESIAN_POINT ( 'NONE',  ( 1.187103655206665183E-14, 0.7500000000000006661, 3.399999999999999467 ) ) ;
#189 = DIRECTION ( 'NONE',  ( 4.275831445896959482E-31, 1.000000000000000000, 1.224646799147353207E-16 ) ) ;
#190 = PLANE ( 'NONE',  #119 ) ;
#191 = ADVANCED_FACE ( 'NONE', ( #26 ), #109, .T. ) ;
#192 = FACE_OUTER_BOUND ( 'NONE', #110, .T. ) ;
#193 = AXIS2_PLACEMENT_3D ( 'NONE', #197, #103, #45 ) ;
#194 = CARTESIAN_POINT ( 'NONE',  ( 1.326762908760390423E-13, -4.653657836759941941E-15, 38.00000000000000000 ) ) ;
#195 = ORIENTED_EDGE ( 'NONE', *, *, #236, .T. ) ;
#196 = PERSON_AND_ORGANIZATION_ROLE ( 'design_owner' ) ;
#197 = CARTESIAN_POINT ( 'NONE',  ( -1.710332578358783705E-32, 5.999039130647431458E-34, -4.898587196589413537E-18 ) ) ;
#198 = CARTESIAN_POINT ( 'NONE',  ( 1.326762908760390423E-13, 1.199999999999998845, 38.00000000000000000 ) ) ;
#199 = MECHANICAL_CONTEXT ( 'NONE', #90, 'mechanical' ) ;
#200 = LOCAL_TIME ( 7, 51, 35.00000000000000000, #237 ) ;
#201 = EDGE_LOOP ( 'NONE', ( #69 ) ) ;
#202 = DATE_AND_TIME ( #108, #21 ) ;
#203 = SECURITY_CLASSIFICATION_LEVEL ( 'unclassified' ) ;
#204 = ADVANCED_FACE ( 'NONE', ( #214, #124 ), #86, .T. ) ;
#205 = CC_DESIGN_PERSON_AND_ORGANIZATION_ASSIGNMENT ( #240, #159, ( #76 ) ) ;
#206 = DATE_AND_TIME ( #151, #37 ) ;
#207 = AXIS2_PLACEMENT_3D ( 'NONE', #209, #41, #19 ) ;
#208 = DIRECTION ( 'NONE',  ( -3.491481338843133355E-15, 1.224646799147353207E-16, -1.000000000000000000 ) ) ;
#209 = CARTESIAN_POINT ( 'NONE',  ( 2.367900757518973625E-14, -8.305477824363904586E-16, 6.781937314617162649 ) ) ;
#210 = CIRCLE ( 'NONE', #113, 1.500000000000003331 ) ;
#211 = DIRECTION ( 'NONE',  ( 3.491481338843133355E-15, -1.224646799147353207E-16, 1.000000000000000000 ) ) ;
#212 = CARTESIAN_POINT ( 'NONE',  ( 0.0000000000000000000, 0.0000000000000000000, 0.0000000000000000000 ) ) ;
#213 = AXIS2_PLACEMENT_3D ( 'NONE', #61, #180, #82 ) ;
#214 = FACE_OUTER_BOUND ( 'NONE', #158, .T. ) ;
#215 = ORIENTED_EDGE ( 'NONE', *, *, #155, .F. ) ;
#216 = DATE_AND_TIME ( #147, #200 ) ;
#217 = DIRECTION ( 'NONE',  ( -3.491481338843133355E-15, 1.224646799147353207E-16, -1.000000000000000000 ) ) ;
#218 = EDGE_LOOP ( 'NONE', ( #50 ) ) ;
#219 = APPROVAL_STATUS ( 'not_yet_approved' ) ;
#220 = EDGE_LOOP ( 'NONE', ( #133 ) ) ;
#221 = PLANE ( 'NONE',  #74 ) ;
#222 = AXIS2_PLACEMENT_3D ( 'NONE', #185, #105, #87 ) ;
#223 = CARTESIAN_POINT ( 'NONE',  ( 2.367900757518973625E-14, 1.499999999999996225, 6.781937314617162649 ) ) ;
#224 = COORDINATED_UNIVERSAL_TIME_OFFSET ( 1, 0, .AHEAD. ) ;
#225 = SECURITY_CLASSIFICATION ( '', '', #203 ) ;
#226 = ADVANCED_FACE ( 'NONE', ( #55 ), #221, .F. ) ;
#227 = CLOSED_SHELL ( 'NONE', ( #22, #186, #125, #36, #204, #60 ) ) ;
#228 = APPROVAL_PERSON_ORGANIZATION ( #71, #1, #187 ) ;
#229 = DIRECTION ( 'NONE',  ( 4.355100981429076768E-31, 1.000000000000000000, 1.224646799147353207E-16 ) ) ;
#230 = EDGE_LOOP ( 'NONE', ( #27 ) ) ;
#231 = COORDINATED_UNIVERSAL_TIME_OFFSET ( 1, 0, .AHEAD. ) ;
#232 = DIRECTION ( 'NONE',  ( -3.491481338843133355E-15, 1.224646799147353207E-16, -1.000000000000000000 ) ) ;
#233 = EDGE_LOOP ( 'NONE', ( #31 ) ) ;
#234 = DESIGN_CONTEXT ( 'detailed design', #107, 'design' ) ;
#235 = AXIS2_PLACEMENT_3D ( 'NONE', #157, #6, #229 ) ;
#236 = EDGE_CURVE ( 'NONE', #114, #114, #210, .T. ) ;
#237 = COORDINATED_UNIVERSAL_TIME_OFFSET ( 1, 0, .AHEAD. ) ;
#238 = ORIENTED_EDGE ( 'NONE', *, *, #155, .T. ) ;
#239 = CARTESIAN_POINT ( 'NONE',  ( 1.316288464743861212E-13, 1.499999999999998668, 37.69999999999999574 ) ) ;
#240 = PERSON_AND_ORGANIZATION ( #174, #156 ) ;
#241 = AXIS2_PLACEMENT_3D ( 'NONE', #96, #171, #59 ) ;
#242 = CIRCLE ( 'NONE', #152, 0.7500000000000000000 ) ;
#243 = CC_DESIGN_PERSON_AND_ORGANIZATION_ASSIGNMENT ( #70, #161, ( #225 ) ) ;
ENDSEC;
END-ISO-10303-21;
