ISO-10303-21;
HEADER;
FILE_DESCRIPTION (( 'STEP AP203' ),
    '1' );
FILE_NAME ('65846.step',
    '2021-11-24T06:51:34',
    ( '' ),
    ( '' ),
    'SwSTEP 2.0',
    'SolidWorks 2019',
    '' );
FILE_SCHEMA (( 'CONFIG_CONTROL_DESIGN' ));
ENDSEC;

DATA;
#1 = DATE_AND_TIME ( #138, #240 ) ;
#2 = ADVANCED_FACE ( 'NONE', ( #6, #160 ), #66, .T. ) ;
#3 = AXIS2_PLACEMENT_3D ( 'NONE', #92, #181, #131 ) ;
#4 = CC_DESIGN_PERSON_AND_ORGANIZATION_ASSIGNMENT ( #157, #144, ( #183 ) ) ;
#5 = COORDINATED_UNIVERSAL_TIME_OFFSET ( 1, 0, .AHEAD. ) ;
#6 = FACE_OUTER_BOUND ( 'NONE', #38, .T. ) ;
#7 = PERSON_AND_ORGANIZATION ( #48, #219 ) ;
#8 = CARTESIAN_POINT ( 'NONE',  ( 8.028333948446682507E-15, -2.815960481607199689E-16, 2.299406231713324367 ) ) ;
#9 = AXIS2_PLACEMENT_3D ( 'NONE', #106, #53, #239 ) ;
#10 = FACE_OUTER_BOUND ( 'NONE', #212, .T. ) ;
#11 = VERTEX_POINT ( 'NONE', #108 ) ;
#12 = FACE_OUTER_BOUND ( 'NONE', #142, .T. ) ;
#13 = DIRECTION ( 'NONE',  ( 4.275831445896958607E-31, 1.000000000000000000, 1.224646799147353207E-16 ) ) ;
#14 = CARTESIAN_POINT ( 'NONE',  ( -1.710332578358783705E-32, 5.999039130647431458E-34, -4.898587196589413537E-18 ) ) ;
#15 = DIRECTION ( 'NONE',  ( -3.491481338843133355E-15, 1.224646799147353207E-16, -1.000000000000000000 ) ) ;
#16 = APPROVAL_DATE_TIME ( #198, #130 ) ;
#17 = CC_DESIGN_APPROVAL ( #189, ( #199 ) ) ;
#18 = ADVANCED_FACE ( 'NONE', ( #159, #236 ), #174, .F. ) ;
#19 = EDGE_CURVE ( 'NONE', #169, #169, #36, .T. ) ;
#20 = ORIENTED_EDGE ( 'NONE', *, *, #19, .T. ) ;
#21 = AXIS2_PLACEMENT_3D ( 'NONE', #8, #101, #25 ) ;
#22 = SHAPE_DEFINITION_REPRESENTATION ( #143, #39 ) ;
#23 = COORDINATED_UNIVERSAL_TIME_OFFSET ( 1, 0, .AHEAD. ) ;
#24 = LOCAL_TIME ( 7, 51, 34.00000000000000000, #65 ) ;
#25 = DIRECTION ( 'NONE',  ( 0.0000000000000000000, 1.000000000000000000, 0.0000000000000000000 ) ) ;
#26 = APPROVAL_STATUS ( 'not_yet_approved' ) ;
#27 = PERSON_AND_ORGANIZATION ( #48, #219 ) ;
#28 = APPROVAL_PERSON_ORGANIZATION ( #215, #130, #233 ) ;
#29 = CC_DESIGN_PERSON_AND_ORGANIZATION_ASSIGNMENT ( #214, #98, ( #137 ) ) ;
#30 = FACE_BOUND ( 'NONE', #78, .T. ) ;
#31 = PLANE ( 'NONE',  #161 ) ;
#32 = CARTESIAN_POINT ( 'NONE',  ( 1.326762908760390423E-13, -4.653657836759941941E-15, 38.00000000000000000 ) ) ;
#33 = CARTESIAN_POINT ( 'NONE',  ( 2.367900757518973625E-14, -8.305477824363904586E-16, 6.781937314617162649 ) ) ;
#34 =( LENGTH_UNIT ( ) NAMED_UNIT ( * ) SI_UNIT ( .MILLI., .METRE. ) );
#35 = CLOSED_SHELL ( 'NONE', ( #47, #135, #18, #227, #2, #99 ) ) ;
#36 = CIRCLE ( 'NONE', #21, 0.7500000000000001110 ) ;
#37 = DATE_AND_TIME ( #59, #82 ) ;
#38 = EDGE_LOOP ( 'NONE', ( #154 ) ) ;
#39 = ADVANCED_BREP_SHAPE_REPRESENTATION ( '65846', ( #124, #41, #61 ), #114 ) ;
#40 = ORIENTED_EDGE ( 'NONE', *, *, #89, .T. ) ;
#41 = MANIFOLD_SOLID_BREP ( 'Corps-Déplacer/Copier1[2]', #119 ) ;
#42 = CC_DESIGN_DATE_AND_TIME_ASSIGNMENT ( #158, #153, ( #199 ) ) ;
#43 = APPROVAL_DATE_TIME ( #37, #189 ) ;
#44 = PERSON_AND_ORGANIZATION_ROLE ( 'creator' ) ;
#45 = FACE_OUTER_BOUND ( 'NONE', #134, .T. ) ;
#46 = APPROVAL_ROLE ( '' ) ;
#47 = ADVANCED_FACE ( 'NONE', ( #45 ), #237, .F. ) ;
#48 = PERSON ( 'UNSPECIFIED', 'UNSPECIFIED', 'UNSPECIFIED', ('UNSPECIFIED'), ('UNSPECIFIED'), ('UNSPECIFIED') ) ;
#49 = VERTEX_POINT ( 'NONE', #74 ) ;
#50 = CYLINDRICAL_SURFACE ( 'NONE', #69, 0.7500000000000006661 ) ;
#51 = CARTESIAN_POINT ( 'NONE',  ( 8.028333948446682507E-15, 0.7499999999999997780, 2.299406231713324367 ) ) ;
#52 = AXIS2_PLACEMENT_3D ( 'NONE', #75, #54, #103 ) ;
#53 = DIRECTION ( 'NONE',  ( -3.491481338843133355E-15, 1.224646799147353207E-16, -1.000000000000000000 ) ) ;
#54 = DIRECTION ( 'NONE',  ( 3.491481338843133355E-15, -1.224646799147353207E-16, 1.000000000000000000 ) ) ;
#55 = FACE_OUTER_BOUND ( 'NONE', #173, .T. ) ;
#56 = APPROVAL_PERSON_ORGANIZATION ( #230, #189, #176 ) ;
#57 = EDGE_LOOP ( 'NONE', ( #211 ) ) ;
#58 = AXIS2_PLACEMENT_3D ( 'NONE', #242, #88, #201 ) ;
#59 = CALENDAR_DATE ( 2021, 24, 11 ) ;
#60 = EDGE_LOOP ( 'NONE', ( #136 ) ) ;
#61 = AXIS2_PLACEMENT_3D ( 'NONE', #62, #140, #110 ) ;
#62 = CARTESIAN_POINT ( 'NONE',  ( 0.0000000000000000000, 0.0000000000000000000, 0.0000000000000000000 ) ) ;
#63 = APPLICATION_PROTOCOL_DEFINITION ( 'international standard', 'config_control_design', 1994, #207 ) ;
#64 = EDGE_CURVE ( 'NONE', #49, #49, #232, .T. ) ;
#65 = COORDINATED_UNIVERSAL_TIME_OFFSET ( 1, 0, .AHEAD. ) ;
#66 = CONICAL_SURFACE ( 'NONE', #213, 1.200000000000003286, 0.7853981633974453924 ) ;
#67 = DIRECTION ( 'NONE',  ( 3.491481338843133355E-15, -1.224646799147353207E-16, 1.000000000000000000 ) ) ;
#68 = CC_DESIGN_DATE_AND_TIME_ASSIGNMENT ( #1, #121, ( #209 ) ) ;
#69 = AXIS2_PLACEMENT_3D ( 'NONE', #205, #72, #203 ) ;
#70 = DIRECTION ( 'NONE',  ( -3.491481338843133355E-15, 1.224646799147353207E-16, -1.000000000000000000 ) ) ;
#71 = DIRECTION ( 'NONE',  ( -4.275831445896958607E-31, -1.000000000000000000, -1.224646799147353207E-16 ) ) ;
#72 = DIRECTION ( 'NONE',  ( -3.491481338843133355E-15, 1.224646799147353207E-16, -1.000000000000000000 ) ) ;
#73 = AXIS2_PLACEMENT_3D ( 'NONE', #224, #70, #13 ) ;
#74 = CARTESIAN_POINT ( 'NONE',  ( -6.413747168845440264E-33, 0.02500000000000000139, -1.836970198721030365E-18 ) ) ;
#75 = CARTESIAN_POINT ( 'NONE',  ( -8.551662891793918527E-33, 2.999519565323715729E-34, -2.449293598294706769E-18 ) ) ;
#76 = CC_DESIGN_PERSON_AND_ORGANIZATION_ASSIGNMENT ( #27, #116, ( #137 ) ) ;
#77 = CALENDAR_DATE ( 2021, 24, 11 ) ;
#78 = EDGE_LOOP ( 'NONE', ( #175 ) ) ;
#79 = ORIENTED_EDGE ( 'NONE', *, *, #171, .T. ) ;
#80 = PERSON_AND_ORGANIZATION ( #48, #219 ) ;
#81 = ORIENTED_EDGE ( 'NONE', *, *, #64, .T. ) ;
#82 = LOCAL_TIME ( 7, 51, 34.00000000000000000, #23 ) ;
#83 = ORIENTED_EDGE ( 'NONE', *, *, #94, .T. ) ;
#84 = CONICAL_SURFACE ( 'NONE', #133, 0.02500000000000000139, 0.3054326190990083179 ) ;
#85 = PRODUCT_RELATED_PRODUCT_CATEGORY ( 'detail', '', ( #183 ) ) ;
#86 = AXIS2_PLACEMENT_3D ( 'NONE', #32, #220, #170 ) ;
#87 = PLANE ( 'NONE',  #128 ) ;
#88 = DIRECTION ( 'NONE',  ( -3.491481338843133355E-15, 1.224646799147353207E-16, -1.000000000000000000 ) ) ;
#89 = EDGE_CURVE ( 'NONE', #11, #11, #93, .T. ) ;
#90 = DIRECTION ( 'NONE',  ( -3.491481338843133355E-15, 1.224646799147353207E-16, -1.000000000000000000 ) ) ;
#91 = CYLINDRICAL_SURFACE ( 'NONE', #3, 1.500000000000000000 ) ;
#92 = CARTESIAN_POINT ( 'NONE',  ( 0.0000000000000000000, 0.0000000000000000000, 0.0000000000000000000 ) ) ;
#93 = CIRCLE ( 'NONE', #9, 0.7500000000000011102 ) ;
#94 = EDGE_CURVE ( 'NONE', #166, #166, #177, .T. ) ;
#95 = DATE_AND_TIME ( #192, #186 ) ;
#96 = ORIENTED_EDGE ( 'NONE', *, *, #200, .F. ) ;
#97 = ORIENTED_EDGE ( 'NONE', *, *, #19, .F. ) ;
#98 = PERSON_AND_ORGANIZATION_ROLE ( 'design_supplier' ) ;
#99 = ADVANCED_FACE ( 'NONE', ( #10 ), #87, .F. ) ;
#100 = DIRECTION ( 'NONE',  ( 0.0000000000000000000, 1.000000000000000000, 0.0000000000000000000 ) ) ;
#101 = DIRECTION ( 'NONE',  ( -3.491481338843133355E-15, 1.224646799147353207E-16, -1.000000000000000000 ) ) ;
#102 = CC_DESIGN_APPROVAL ( #162, ( #209 ) ) ;
#103 = DIRECTION ( 'NONE',  ( -4.275831445896958607E-31, -1.000000000000000000, -1.224646799147353207E-16 ) ) ;
#104 = CARTESIAN_POINT ( 'NONE',  ( 8.028333948446682507E-15, -4.748648962153721488E-32, 2.299406231713324367 ) ) ;
#105 =( NAMED_UNIT ( * ) SI_UNIT ( $, .STERADIAN. ) SOLID_ANGLE_UNIT ( ) );
#106 = CARTESIAN_POINT ( 'NONE',  ( 1.187103655206665183E-14, -4.163799117101000066E-16, 3.399999999999999467 ) ) ;
#107 = DIRECTION ( 'NONE',  ( 0.0000000000000000000, 1.000000000000000000, 0.0000000000000000000 ) ) ;
#108 = CARTESIAN_POINT ( 'NONE',  ( 1.187103655206665183E-14, 0.7500000000000006661, 3.399999999999999467 ) ) ;
#109 = AXIS2_PLACEMENT_3D ( 'NONE', #197, #67, #167 ) ;
#110 = DIRECTION ( 'NONE',  ( 1.000000000000000000, 0.0000000000000000000, 0.0000000000000000000 ) ) ;
#111 = ORIENTED_EDGE ( 'NONE', *, *, #200, .T. ) ;
#112 = EDGE_LOOP ( 'NONE', ( #81 ) ) ;
#113 = EDGE_LOOP ( 'NONE', ( #20 ) ) ;
#114 =( GEOMETRIC_REPRESENTATION_CONTEXT ( 3 ) GLOBAL_UNCERTAINTY_ASSIGNED_CONTEXT ( ( #118 ) ) GLOBAL_UNIT_ASSIGNED_CONTEXT ( ( #34, #228, #105 ) ) REPRESENTATION_CONTEXT ( 'NONE', 'WORKASPACE' ) );
#115 = SECURITY_CLASSIFICATION_LEVEL ( 'unclassified' ) ;
#116 = PERSON_AND_ORGANIZATION_ROLE ( 'creator' ) ;
#117 = CC_DESIGN_PERSON_AND_ORGANIZATION_ASSIGNMENT ( #7, #44, ( #209 ) ) ;
#118 = UNCERTAINTY_MEASURE_WITH_UNIT (LENGTH_MEASURE( 1.000000000000000082E-05 ), #34, 'distance_accuracy_value', 'NONE');
#119 = CLOSED_SHELL ( 'NONE', ( #204, #221, #139 ) ) ;
#120 = APPLICATION_CONTEXT ( 'configuration controlled 3d designs of mechanical parts and assemblies' ) ;
#121 = DATE_TIME_ROLE ( 'creation_date' ) ;
#122 = DIRECTION ( 'NONE',  ( 4.355100981429076768E-31, 1.000000000000000000, 1.224646799147353207E-16 ) ) ;
#123 = COORDINATED_UNIVERSAL_TIME_OFFSET ( 1, 0, .AHEAD. ) ;
#124 = MANIFOLD_SOLID_BREP ( 'Corps-Déplacer/Copier1[1]', #35 ) ;
#125 = AXIS2_PLACEMENT_3D ( 'NONE', #33, #15, #107 ) ;
#126 = CARTESIAN_POINT ( 'NONE',  ( 8.028333948446682507E-15, 0.7499999999999997780, 2.299406231713324367 ) ) ;
#127 = CARTESIAN_POINT ( 'NONE',  ( 1.326762908760390423E-13, 8.998558695971103225E-33, 38.00000000000000000 ) ) ;
#128 = AXIS2_PLACEMENT_3D ( 'NONE', #127, #90, #238 ) ;
#129 = DIRECTION ( 'NONE',  ( -4.275831445896958607E-31, -1.000000000000000000, -1.224646799147353207E-16 ) ) ;
#130 = APPROVAL ( #196, 'UNSPECIFIED' ) ;
#131 = DIRECTION ( 'NONE',  ( 4.275831445896959482E-31, 1.000000000000000000, 1.224646799147353207E-16 ) ) ;
#132 = EDGE_LOOP ( 'NONE', ( #97 ) ) ;
#133 = AXIS2_PLACEMENT_3D ( 'NONE', #14, #225, #71 ) ;
#134 = EDGE_LOOP ( 'NONE', ( #79 ) ) ;
#135 = ADVANCED_FACE ( 'NONE', ( #12, #222 ), #50, .T. ) ;
#136 = ORIENTED_EDGE ( 'NONE', *, *, #171, .F. ) ;
#137 = PRODUCT_DEFINITION_FORMATION_WITH_SPECIFIED_SOURCE ( 'ANY', '', #183, .NOT_KNOWN. ) ;
#138 = CALENDAR_DATE ( 2021, 24, 11 ) ;
#139 = ADVANCED_FACE ( 'NONE', ( #182 ), #31, .T. ) ;
#140 = DIRECTION ( 'NONE',  ( 0.0000000000000000000, 0.0000000000000000000, 1.000000000000000000 ) ) ;
#141 = PERSON_AND_ORGANIZATION ( #48, #219 ) ;
#142 = EDGE_LOOP ( 'NONE', ( #40 ) ) ;
#143 = PRODUCT_DEFINITION_SHAPE ( 'NONE', 'NONE',  #209 ) ;
#144 = PERSON_AND_ORGANIZATION_ROLE ( 'design_owner' ) ;
#145 = EDGE_LOOP ( 'NONE', ( #83 ) ) ;
#146 = DIRECTION ( 'NONE',  ( -3.491481338843133355E-15, 1.224646799147353207E-16, -1.000000000000000000 ) ) ;
#147 = PLANE ( 'NONE',  #52 ) ;
#148 = DIRECTION ( 'NONE',  ( 3.491481338843133355E-15, -1.224646799147353207E-16, 1.000000000000000000 ) ) ;
#149 = APPROVAL_PERSON_ORGANIZATION ( #141, #162, #46 ) ;
#150 = VERTEX_POINT ( 'NONE', #226 ) ;
#151 = VERTEX_POINT ( 'NONE', #51 ) ;
#152 = ORIENTED_EDGE ( 'NONE', *, *, #156, .T. ) ;
#153 = DATE_TIME_ROLE ( 'classification_date' ) ;
#154 = ORIENTED_EDGE ( 'NONE', *, *, #94, .F. ) ;
#155 = CC_DESIGN_SECURITY_CLASSIFICATION ( #199, ( #137 ) ) ;
#156 = EDGE_CURVE ( 'NONE', #150, #150, #191, .T. ) ;
#157 = PERSON_AND_ORGANIZATION ( #48, #219 ) ;
#158 = DATE_AND_TIME ( #188, #243 ) ;
#159 = FACE_OUTER_BOUND ( 'NONE', #190, .T. ) ;
#160 = FACE_BOUND ( 'NONE', #231, .T. ) ;
#161 = AXIS2_PLACEMENT_3D ( 'NONE', #104, #148, #129 ) ;
#162 = APPROVAL ( #218, 'UNSPECIFIED' ) ;
#163 = AXIS2_PLACEMENT_3D ( 'NONE', #184, #146, #165 ) ;
#164 = DESIGN_CONTEXT ( 'detailed design', #207, 'design' ) ;
#165 = DIRECTION ( 'NONE',  ( 0.0000000000000000000, 1.000000000000000000, 0.0000000000000000000 ) ) ;
#166 = VERTEX_POINT ( 'NONE', #223 ) ;
#167 = DIRECTION ( 'NONE',  ( -4.275831445896958607E-31, -1.000000000000000000, -1.224646799147353207E-16 ) ) ;
#168 = CC_DESIGN_APPROVAL ( #130, ( #137 ) ) ;
#169 = VERTEX_POINT ( 'NONE', #126 ) ;
#170 = DIRECTION ( 'NONE',  ( 0.0000000000000000000, 1.000000000000000000, 0.0000000000000000000 ) ) ;
#171 = EDGE_CURVE ( 'NONE', #151, #151, #210, .T. ) ;
#172 = APPROVAL_DATE_TIME ( #95, #162 ) ;
#173 = EDGE_LOOP ( 'NONE', ( #229 ) ) ;
#174 = TOROIDAL_SURFACE ( 'NONE', #202, 8.750000000000000000, 8.000000000000000000 ) ;
#175 = ORIENTED_EDGE ( 'NONE', *, *, #64, .F. ) ;
#176 = APPROVAL_ROLE ( '' ) ;
#177 = CIRCLE ( 'NONE', #163, 1.500000000000003331 ) ;
#178 = DIRECTION ( 'NONE',  ( -3.491481338843133355E-15, 1.224646799147353207E-16, -1.000000000000000000 ) ) ;
#179 = COORDINATED_UNIVERSAL_TIME_OFFSET ( 1, 0, .AHEAD. ) ;
#180 = DIRECTION ( 'NONE',  ( -3.491481338843133355E-15, 1.224646799147353207E-16, -1.000000000000000000 ) ) ;
#181 = DIRECTION ( 'NONE',  ( -3.491481338843133355E-15, 1.224646799147353207E-16, -1.000000000000000000 ) ) ;
#182 = FACE_OUTER_BOUND ( 'NONE', #132, .T. ) ;
#183 = PRODUCT ( '65846', '65846', '', ( #216 ) ) ;
#184 = CARTESIAN_POINT ( 'NONE',  ( 1.316288464743861212E-13, -4.616918432785521081E-15, 37.69999999999999574 ) ) ;
#185 = FACE_OUTER_BOUND ( 'NONE', #113, .T. ) ;
#186 = LOCAL_TIME ( 7, 51, 34.00000000000000000, #179 ) ;
#187 = VERTEX_POINT ( 'NONE', #208 ) ;
#188 = CALENDAR_DATE ( 2021, 24, 11 ) ;
#189 = APPROVAL ( #26, 'UNSPECIFIED' ) ;
#190 = EDGE_LOOP ( 'NONE', ( #152 ) ) ;
#191 = CIRCLE ( 'NONE', #125, 1.499999999999996891 ) ;
#192 = CALENDAR_DATE ( 2021, 24, 11 ) ;
#193 = PERSON_AND_ORGANIZATION_ROLE ( 'classification_officer' ) ;
#194 = CARTESIAN_POINT ( 'NONE',  ( 1.187103655206665183E-14, 0.0000000000000000000, 3.399999999999999911 ) ) ;
#195 = CIRCLE ( 'NONE', #86, 1.200000000000003286 ) ;
#196 = APPROVAL_STATUS ( 'not_yet_approved' ) ;
#197 = CARTESIAN_POINT ( 'NONE',  ( 8.028333948446682507E-15, -4.748648962153721488E-32, 2.299406231713324367 ) ) ;
#198 = DATE_AND_TIME ( #77, #24 ) ;
#199 = SECURITY_CLASSIFICATION ( '', '', #115 ) ;
#200 = EDGE_CURVE ( 'NONE', #187, #187, #195, .T. ) ;
#201 = DIRECTION ( 'NONE',  ( 0.0000000000000000000, 1.000000000000000000, 0.0000000000000000000 ) ) ;
#202 = AXIS2_PLACEMENT_3D ( 'NONE', #194, #178, #122 ) ;
#203 = DIRECTION ( 'NONE',  ( 4.275831445896958607E-31, 1.000000000000000000, 1.224646799147353207E-16 ) ) ;
#204 = ADVANCED_FACE ( 'NONE', ( #206 ), #147, .F. ) ;
#205 = CARTESIAN_POINT ( 'NONE',  ( 0.0000000000000000000, 0.0000000000000000000, 0.0000000000000000000 ) ) ;
#206 = FACE_OUTER_BOUND ( 'NONE', #112, .T. ) ;
#207 = APPLICATION_CONTEXT ( 'configuration controlled 3d designs of mechanical parts and assemblies' ) ;
#208 = CARTESIAN_POINT ( 'NONE',  ( 1.326762908760390423E-13, 1.199999999999998845, 38.00000000000000000 ) ) ;
#209 = PRODUCT_DEFINITION ( 'UNKNOWN', '', #137, #164 ) ;
#210 = CIRCLE ( 'NONE', #58, 0.7500000000000001110 ) ;
#211 = ORIENTED_EDGE ( 'NONE', *, *, #89, .F. ) ;
#212 = EDGE_LOOP ( 'NONE', ( #96 ) ) ;
#213 = AXIS2_PLACEMENT_3D ( 'NONE', #217, #180, #100 ) ;
#214 = PERSON_AND_ORGANIZATION ( #48, #219 ) ;
#215 = PERSON_AND_ORGANIZATION ( #48, #219 ) ;
#216 = MECHANICAL_CONTEXT ( 'NONE', #120, 'mechanical' ) ;
#217 = CARTESIAN_POINT ( 'NONE',  ( 1.326762908760390423E-13, -4.653657836759941941E-15, 38.00000000000000000 ) ) ;
#218 = APPROVAL_STATUS ( 'not_yet_approved' ) ;
#219 = ORGANIZATION ( 'UNSPECIFIED', 'UNSPECIFIED', '' ) ;
#220 = DIRECTION ( 'NONE',  ( -3.491481338843133355E-15, 1.224646799147353207E-16, -1.000000000000000000 ) ) ;
#221 = ADVANCED_FACE ( 'NONE', ( #185, #30 ), #84, .T. ) ;
#222 = FACE_OUTER_BOUND ( 'NONE', #60, .T. ) ;
#223 = CARTESIAN_POINT ( 'NONE',  ( 1.316288464743861212E-13, 1.499999999999998668, 37.69999999999999574 ) ) ;
#224 = CARTESIAN_POINT ( 'NONE',  ( -1.710332578358783705E-32, 5.999039130647431458E-34, -4.898587196589413537E-18 ) ) ;
#225 = DIRECTION ( 'NONE',  ( 3.491481338843133355E-15, -1.224646799147353207E-16, 1.000000000000000000 ) ) ;
#226 = CARTESIAN_POINT ( 'NONE',  ( 2.367900757518973625E-14, 1.499999999999996225, 6.781937314617162649 ) ) ;
#227 = ADVANCED_FACE ( 'NONE', ( #55, #241 ), #91, .T. ) ;
#228 =( NAMED_UNIT ( * ) PLANE_ANGLE_UNIT ( ) SI_UNIT ( $, .RADIAN. ) );
#229 = ORIENTED_EDGE ( 'NONE', *, *, #156, .F. ) ;
#230 = PERSON_AND_ORGANIZATION ( #48, #219 ) ;
#231 = EDGE_LOOP ( 'NONE', ( #111 ) ) ;
#232 = CIRCLE ( 'NONE', #73, 0.02500000000000000139 ) ;
#233 = APPROVAL_ROLE ( '' ) ;
#234 = CC_DESIGN_PERSON_AND_ORGANIZATION_ASSIGNMENT ( #80, #193, ( #199 ) ) ;
#235 = APPLICATION_PROTOCOL_DEFINITION ( 'international standard', 'config_control_design', 1994, #120 ) ;
#236 = FACE_OUTER_BOUND ( 'NONE', #57, .T. ) ;
#237 = PLANE ( 'NONE',  #109 ) ;
#238 = DIRECTION ( 'NONE',  ( 4.275831445896958607E-31, 1.000000000000000000, 1.224646799147353207E-16 ) ) ;
#239 = DIRECTION ( 'NONE',  ( 0.0000000000000000000, 1.000000000000000000, 0.0000000000000000000 ) ) ;
#240 = LOCAL_TIME ( 7, 51, 34.00000000000000000, #123 ) ;
#241 = FACE_OUTER_BOUND ( 'NONE', #145, .T. ) ;
#242 = CARTESIAN_POINT ( 'NONE',  ( 8.028333948446682507E-15, -2.815960481607199689E-16, 2.299406231713324367 ) ) ;
#243 = LOCAL_TIME ( 7, 51, 34.00000000000000000, #5 ) ;
ENDSEC;
END-ISO-10303-21;
