ISO-10303-21;
HEADER;
FILE_DESCRIPTION (( 'STEP AP203' ),
    '1' );
FILE_NAME ('658.step',
    '2021-12-06T13:00:07',
    ( '' ),
    ( '' ),
    'SwSTEP 2.0',
    'SolidWorks 2019',
    '' );
FILE_SCHEMA (( 'CONFIG_CONTROL_DESIGN' ));
ENDSEC;

DATA;
#1 = COORDINATED_UNIVERSAL_TIME_OFFSET ( 1, 0, .AHEAD. ) ;
#2 = PERSON_AND_ORGANIZATION ( #118, #105 ) ;
#3 = APPROVAL_PERSON_ORGANIZATION ( #70, #42, #39 ) ;
#4 = LOCAL_TIME ( 14, 0, 7.000000000000000000, #144 ) ;
#5 = CARTESIAN_POINT ( 'NONE',  ( 0.0000000000000000000, 0.0000000000000000000, 0.0000000000000000000 ) ) ;
#6 = DIRECTION ( 'NONE',  ( -3.491481338843133355E-15, 1.224646799147353207E-16, -1.000000000000000000 ) ) ;
#7 = CC_DESIGN_DATE_AND_TIME_ASSIGNMENT ( #103, #77, ( #67 ) ) ;
#8 = DIRECTION ( 'NONE',  ( 3.081487911019577365E-31, 1.000000000000000000, 8.673617379884035472E-17 ) ) ;
#9 = PERSON_AND_ORGANIZATION ( #118, #105 ) ;
#10 = APPLICATION_CONTEXT ( 'configuration controlled 3d designs of mechanical parts and assemblies' ) ;
#11 = VERTEX_POINT ( 'NONE', #139 ) ;
#12 = AXIS2_PLACEMENT_3D ( 'NONE', #37, #91, #116 ) ;
#13 = CARTESIAN_POINT ( 'NONE',  ( 0.0000000000000000000, 5.000000000000000000, 0.0000000000000000000 ) ) ;
#14 = PERSON_AND_ORGANIZATION ( #118, #105 ) ;
#15 = PRODUCT_RELATED_PRODUCT_CATEGORY ( 'detail', '', ( #68 ) ) ;
#16 = PERSON_AND_ORGANIZATION_ROLE ( 'classification_officer' ) ;
#17 = PERSON_AND_ORGANIZATION ( #118, #105 ) ;
#18 = CARTESIAN_POINT ( 'NONE',  ( -3.206873584422719743E-30, 5.000000000000000000, -9.184850993605149917E-16 ) ) ;
#19 = LOCAL_TIME ( 14, 0, 7.000000000000000000, #107 ) ;
#20 = DIRECTION ( 'NONE',  ( -3.491481338843133355E-15, 1.224646799147353207E-16, -1.000000000000000000 ) ) ;
#21 = ORIENTED_EDGE ( 'NONE', *, *, #63, .T. ) ;
#22 = PRODUCT_DEFINITION_SHAPE ( 'NONE', 'NONE',  #67 ) ;
#23 = FACE_OUTER_BOUND ( 'NONE', #131, .T. ) ;
#24 = COORDINATED_UNIVERSAL_TIME_OFFSET ( 1, 0, .AHEAD. ) ;
#25 = CALENDAR_DATE ( 2021, 6, 12 ) ;
#26 = VERTEX_POINT ( 'NONE', #93 ) ;
#27 = DIRECTION ( 'NONE',  ( 1.000000000000000000, 0.0000000000000000000, 0.0000000000000000000 ) ) ;
#28 = CALENDAR_DATE ( 2021, 6, 12 ) ;
#29 =( GEOMETRIC_REPRESENTATION_CONTEXT ( 3 ) GLOBAL_UNCERTAINTY_ASSIGNED_CONTEXT ( ( #54 ) ) GLOBAL_UNIT_ASSIGNED_CONTEXT ( ( #64, #104, #87 ) ) REPRESENTATION_CONTEXT ( 'NONE', 'WORKASPACE' ) );
#30 = EDGE_LOOP ( 'NONE', ( #97 ) ) ;
#31 = ORIENTED_EDGE ( 'NONE', *, *, #138, .T. ) ;
#32 = EDGE_LOOP ( 'NONE', ( #109 ) ) ;
#33 = ADVANCED_FACE ( 'NONE', ( #86, #159 ), #98, .F. ) ;
#34 = APPROVAL_STATUS ( 'not_yet_approved' ) ;
#35 = PERSON_AND_ORGANIZATION ( #118, #105 ) ;
#36 = ADVANCED_BREP_SHAPE_REPRESENTATION ( '658', ( #142, #143 ), #29 ) ;
#37 = CARTESIAN_POINT ( 'NONE',  ( 1.047444401652939691E-14, 5.000000000000000000, 2.999999999999999112 ) ) ;
#38 = FACE_OUTER_BOUND ( 'NONE', #53, .T. ) ;
#39 = APPROVAL_ROLE ( '' ) ;
#40 = PERSON_AND_ORGANIZATION_ROLE ( 'creator' ) ;
#41 = CC_DESIGN_APPROVAL ( #42, ( #45 ) ) ;
#42 = APPROVAL ( #129, 'UNSPECIFIED' ) ;
#43 = AXIS2_PLACEMENT_3D ( 'NONE', #112, #79, #165 ) ;
#44 = ADVANCED_FACE ( 'NONE', ( #23, #83 ), #102, .T. ) ;
#45 = SECURITY_CLASSIFICATION ( '', '', #141 ) ;
#46 = COORDINATED_UNIVERSAL_TIME_OFFSET ( 1, 0, .AHEAD. ) ;
#47 = CARTESIAN_POINT ( 'NONE',  ( 1.047444401652940007E-14, 5.000000000000000000, 3.000000000000000000 ) ) ;
#48 = DIRECTION ( 'NONE',  ( -3.491481338843133355E-15, 1.224646799147353207E-16, -1.000000000000000000 ) ) ;
#49 = DATE_AND_TIME ( #28, #19 ) ;
#50 = CC_DESIGN_PERSON_AND_ORGANIZATION_ASSIGNMENT ( #153, #90, ( #68 ) ) ;
#51 = AXIS2_PLACEMENT_3D ( 'NONE', #62, #48, #58 ) ;
#52 = DATE_AND_TIME ( #94, #4 ) ;
#53 = EDGE_LOOP ( 'NONE', ( #21 ) ) ;
#54 = UNCERTAINTY_MEASURE_WITH_UNIT (LENGTH_MEASURE( 1.000000000000000082E-05 ), #64, 'distance_accuracy_value', 'NONE');
#55 = ORIENTED_EDGE ( 'NONE', *, *, #138, .F. ) ;
#56 = CLOSED_SHELL ( 'NONE', ( #44, #130, #120, #33 ) ) ;
#57 = FACE_BOUND ( 'NONE', #111, .T. ) ;
#58 = DIRECTION ( 'NONE',  ( 4.275831445896958607E-31, 1.000000000000000000, 1.224646799147353207E-16 ) ) ;
#59 = FACE_OUTER_BOUND ( 'NONE', #146, .T. ) ;
#60 = AXIS2_PLACEMENT_3D ( 'NONE', #150, #74, #8 ) ;
#61 = CC_DESIGN_SECURITY_CLASSIFICATION ( #45, ( #169 ) ) ;
#62 = CARTESIAN_POINT ( 'NONE',  ( 0.0000000000000000000, 0.0000000000000000000, 0.0000000000000000000 ) ) ;
#63 = EDGE_CURVE ( 'NONE', #26, #26, #128, .T. ) ;
#64 =( LENGTH_UNIT ( ) NAMED_UNIT ( * ) SI_UNIT ( .MILLI., .METRE. ) );
#65 = AXIS2_PLACEMENT_3D ( 'NONE', #5, #162, #147 ) ;
#66 = APPROVAL_ROLE ( '' ) ;
#67 = PRODUCT_DEFINITION ( 'UNKNOWN', '', #169, #160 ) ;
#68 = PRODUCT ( '658', '658', '', ( #167 ) ) ;
#69 = CC_DESIGN_PERSON_AND_ORGANIZATION_ASSIGNMENT ( #9, #164, ( #67 ) ) ;
#70 = PERSON_AND_ORGANIZATION ( #118, #105 ) ;
#71 = DIRECTION ( 'NONE',  ( 4.622231866529366047E-31, 1.000000000000000000, 1.301042606982605321E-16 ) ) ;
#72 = AXIS2_PLACEMENT_3D ( 'NONE', #110, #6, #71 ) ;
#73 = ORIENTED_EDGE ( 'NONE', *, *, #119, .T. ) ;
#74 = DIRECTION ( 'NONE',  ( -3.491481338843133355E-15, 1.224646799147353207E-16, -1.000000000000000000 ) ) ;
#75 = CALENDAR_DATE ( 2021, 6, 12 ) ;
#76 = VERTEX_POINT ( 'NONE', #13 ) ;
#77 = DATE_TIME_ROLE ( 'creation_date' ) ;
#78 = APPROVAL_PERSON_ORGANIZATION ( #35, #145, #66 ) ;
#79 = DIRECTION ( 'NONE',  ( -3.491481338843133355E-15, 1.224646799147353207E-16, -1.000000000000000000 ) ) ;
#80 = APPROVAL_DATE_TIME ( #49, #42 ) ;
#81 = PERSON_AND_ORGANIZATION ( #118, #105 ) ;
#82 = EDGE_LOOP ( 'NONE', ( #85 ) ) ;
#83 = FACE_BOUND ( 'NONE', #158, .T. ) ;
#84 = AXIS2_PLACEMENT_3D ( 'NONE', #99, #149, #122 ) ;
#85 = ORIENTED_EDGE ( 'NONE', *, *, #96, .T. ) ;
#86 = FACE_OUTER_BOUND ( 'NONE', #82, .T. ) ;
#87 =( NAMED_UNIT ( * ) SI_UNIT ( $, .STERADIAN. ) SOLID_ANGLE_UNIT ( ) );
#88 = CC_DESIGN_APPROVAL ( #145, ( #169 ) ) ;
#89 = APPROVAL_STATUS ( 'not_yet_approved' ) ;
#90 = PERSON_AND_ORGANIZATION_ROLE ( 'design_owner' ) ;
#91 = DIRECTION ( 'NONE',  ( 3.491481338843133355E-15, -1.224646799147353207E-16, 1.000000000000000000 ) ) ;
#92 = LOCAL_TIME ( 14, 0, 7.000000000000000000, #1 ) ;
#93 = CARTESIAN_POINT ( 'NONE',  ( 1.047444401652940007E-14, 20.00000000000000000, 3.000000000000000000 ) ) ;
#94 = CALENDAR_DATE ( 2021, 6, 12 ) ;
#95 = LOCAL_TIME ( 14, 0, 7.000000000000000000, #46 ) ;
#96 = EDGE_CURVE ( 'NONE', #76, #76, #166, .T. ) ;
#97 = ORIENTED_EDGE ( 'NONE', *, *, #63, .F. ) ;
#98 = CYLINDRICAL_SURFACE ( 'NONE', #65, 5.000000000000000000 ) ;
#99 = CARTESIAN_POINT ( 'NONE',  ( -2.137915722948479128E-30, 7.498798913309288039E-32, -6.123233995736766282E-16 ) ) ;
#100 = APPLICATION_CONTEXT ( 'configuration controlled 3d designs of mechanical parts and assemblies' ) ;
#101 = APPROVAL ( #34, 'UNSPECIFIED' ) ;
#102 = PLANE ( 'NONE',  #135 ) ;
#103 = DATE_AND_TIME ( #25, #95 ) ;
#104 =( NAMED_UNIT ( * ) PLANE_ANGLE_UNIT ( ) SI_UNIT ( $, .RADIAN. ) );
#105 = ORGANIZATION ( 'UNSPECIFIED', 'UNSPECIFIED', '' ) ;
#106 = DATE_AND_TIME ( #156, #92 ) ;
#107 = COORDINATED_UNIVERSAL_TIME_OFFSET ( 1, 0, .AHEAD. ) ;
#108 = APPROVAL_DATE_TIME ( #52, #145 ) ;
#109 = ORIENTED_EDGE ( 'NONE', *, *, #119, .F. ) ;
#110 = CARTESIAN_POINT ( 'NONE',  ( 1.047444401652939060E-14, -3.673940397442056417E-16, 2.999999999999997335 ) ) ;
#111 = EDGE_LOOP ( 'NONE', ( #73 ) ) ;
#112 = CARTESIAN_POINT ( 'NONE',  ( -8.551662891793916512E-30, 2.999519565323715216E-31, -2.449293598294706513E-15 ) ) ;
#113 = CC_DESIGN_PERSON_AND_ORGANIZATION_ASSIGNMENT ( #2, #117, ( #169 ) ) ;
#114 = DIRECTION ( 'NONE',  ( 0.0000000000000000000, 0.0000000000000000000, 1.000000000000000000 ) ) ;
#115 = CC_DESIGN_PERSON_AND_ORGANIZATION_ASSIGNMENT ( #17, #16, ( #45 ) ) ;
#116 = DIRECTION ( 'NONE',  ( -4.275831445896958607E-31, -1.000000000000000000, -1.224646799147353207E-16 ) ) ;
#117 = PERSON_AND_ORGANIZATION_ROLE ( 'design_supplier' ) ;
#118 = PERSON ( 'UNSPECIFIED', 'UNSPECIFIED', 'UNSPECIFIED', ('UNSPECIFIED'), ('UNSPECIFIED'), ('UNSPECIFIED') ) ;
#119 = EDGE_CURVE ( 'NONE', #136, #136, #132, .T. ) ;
#120 = ADVANCED_FACE ( 'NONE', ( #57, #125 ), #124, .T. ) ;
#121 = DIRECTION ( 'NONE',  ( 4.275831445896958607E-31, 1.000000000000000000, 1.224646799147353207E-16 ) ) ;
#122 = DIRECTION ( 'NONE',  ( 4.275831445896958607E-31, 1.000000000000000000, 1.224646799147353207E-16 ) ) ;
#123 = DATE_AND_TIME ( #75, #161 ) ;
#124 = PLANE ( 'NONE',  #12 ) ;
#125 = FACE_OUTER_BOUND ( 'NONE', #30, .T. ) ;
#126 = CIRCLE ( 'NONE', #43, 20.00000000000000000 ) ;
#127 = APPLICATION_PROTOCOL_DEFINITION ( 'international standard', 'config_control_design', 1994, #100 ) ;
#128 = CIRCLE ( 'NONE', #72, 20.00000000000000000 ) ;
#129 = APPROVAL_STATUS ( 'not_yet_approved' ) ;
#130 = ADVANCED_FACE ( 'NONE', ( #38, #59 ), #134, .T. ) ;
#131 = EDGE_LOOP ( 'NONE', ( #31 ) ) ;
#132 = CIRCLE ( 'NONE', #60, 5.000000000000000000 ) ;
#133 = ORIENTED_EDGE ( 'NONE', *, *, #96, .F. ) ;
#134 = CYLINDRICAL_SURFACE ( 'NONE', #51, 20.00000000000000000 ) ;
#135 = AXIS2_PLACEMENT_3D ( 'NONE', #18, #20, #121 ) ;
#136 = VERTEX_POINT ( 'NONE', #47 ) ;
#137 = APPROVAL_ROLE ( '' ) ;
#138 = EDGE_CURVE ( 'NONE', #11, #11, #126, .T. ) ;
#139 = CARTESIAN_POINT ( 'NONE',  ( 0.0000000000000000000, 20.00000000000000000, 0.0000000000000000000 ) ) ;
#140 = CARTESIAN_POINT ( 'NONE',  ( 0.0000000000000000000, 0.0000000000000000000, 0.0000000000000000000 ) ) ;
#141 = SECURITY_CLASSIFICATION_LEVEL ( 'unclassified' ) ;
#142 = MANIFOLD_SOLID_BREP ( 'Corps-Déplacer/Copier1', #56 ) ;
#143 = AXIS2_PLACEMENT_3D ( 'NONE', #140, #114, #27 ) ;
#144 = COORDINATED_UNIVERSAL_TIME_OFFSET ( 1, 0, .AHEAD. ) ;
#145 = APPROVAL ( #89, 'UNSPECIFIED' ) ;
#146 = EDGE_LOOP ( 'NONE', ( #55 ) ) ;
#147 = DIRECTION ( 'NONE',  ( 4.275831445896958607E-31, 1.000000000000000000, 1.224646799147353207E-16 ) ) ;
#148 = CC_DESIGN_APPROVAL ( #101, ( #67 ) ) ;
#149 = DIRECTION ( 'NONE',  ( -3.491481338843133355E-15, 1.224646799147353207E-16, -1.000000000000000000 ) ) ;
#150 = CARTESIAN_POINT ( 'NONE',  ( 1.047444401652939849E-14, -3.673940397442059375E-16, 2.999999999999999556 ) ) ;
#151 = CC_DESIGN_PERSON_AND_ORGANIZATION_ASSIGNMENT ( #81, #40, ( #169 ) ) ;
#152 = APPROVAL_DATE_TIME ( #123, #101 ) ;
#153 = PERSON_AND_ORGANIZATION ( #118, #105 ) ;
#154 = APPLICATION_PROTOCOL_DEFINITION ( 'international standard', 'config_control_design', 1994, #10 ) ;
#155 = APPROVAL_PERSON_ORGANIZATION ( #14, #101, #137 ) ;
#156 = CALENDAR_DATE ( 2021, 6, 12 ) ;
#157 = DATE_TIME_ROLE ( 'classification_date' ) ;
#158 = EDGE_LOOP ( 'NONE', ( #133 ) ) ;
#159 = FACE_OUTER_BOUND ( 'NONE', #32, .T. ) ;
#160 = DESIGN_CONTEXT ( 'detailed design', #100, 'design' ) ;
#161 = LOCAL_TIME ( 14, 0, 7.000000000000000000, #24 ) ;
#162 = DIRECTION ( 'NONE',  ( -3.491481338843133355E-15, 1.224646799147353207E-16, -1.000000000000000000 ) ) ;
#163 = CC_DESIGN_DATE_AND_TIME_ASSIGNMENT ( #106, #157, ( #45 ) ) ;
#164 = PERSON_AND_ORGANIZATION_ROLE ( 'creator' ) ;
#165 = DIRECTION ( 'NONE',  ( 4.275831445896958607E-31, 1.000000000000000000, 1.224646799147353207E-16 ) ) ;
#166 = CIRCLE ( 'NONE', #84, 5.000000000000000000 ) ;
#167 = MECHANICAL_CONTEXT ( 'NONE', #10, 'mechanical' ) ;
#168 = SHAPE_DEFINITION_REPRESENTATION ( #22, #36 ) ;
#169 = PRODUCT_DEFINITION_FORMATION_WITH_SPECIFIED_SOURCE ( 'ANY', '', #68, .NOT_KNOWN. ) ;
ENDSEC;
END-ISO-10303-21;
