ISO-10303-21;
HEADER;
FILE_DESCRIPTION (( 'STEP AP203' ),
    '1' );
FILE_NAME ('656.step',
    '2021-12-06T13:00:06',
    ( '' ),
    ( '' ),
    'SwSTEP 2.0',
    'SolidWorks 2019',
    '' );
FILE_SCHEMA (( 'CONFIG_CONTROL_DESIGN' ));
ENDSEC;

DATA;
#1 = DIRECTION ( 'NONE',  ( 4.275831445896958607E-31, 1.000000000000000000, 1.224646799147353207E-16 ) ) ;
#2 = PRODUCT_RELATED_PRODUCT_CATEGORY ( 'detail', '', ( #155 ) ) ;
#3 = APPROVAL_STATUS ( 'not_yet_approved' ) ;
#4 = EDGE_LOOP ( 'NONE', ( #36 ) ) ;
#5 = AXIS2_PLACEMENT_3D ( 'NONE', #132, #131, #1 ) ;
#6 = MECHANICAL_CONTEXT ( 'NONE', #152, 'mechanical' ) ;
#7 = DIRECTION ( 'NONE',  ( 4.275831445896958607E-31, 1.000000000000000000, 1.224646799147353207E-16 ) ) ;
#8 = FACE_BOUND ( 'NONE', #116, .T. ) ;
#9 = DATE_AND_TIME ( #102, #12 ) ;
#10 = CARTESIAN_POINT ( 'NONE',  ( 0.0000000000000000000, 0.0000000000000000000, 0.0000000000000000000 ) ) ;
#11 = CARTESIAN_POINT ( 'NONE',  ( 0.0000000000000000000, 0.0000000000000000000, 0.0000000000000000000 ) ) ;
#12 = LOCAL_TIME ( 14, 0, 6.000000000000000000, #60 ) ;
#13 =( NAMED_UNIT ( * ) SI_UNIT ( $, .STERADIAN. ) SOLID_ANGLE_UNIT ( ) );
#14 = ORIENTED_EDGE ( 'NONE', *, *, #79, .T. ) ;
#15 = FACE_OUTER_BOUND ( 'NONE', #99, .T. ) ;
#16 = DIRECTION ( 'NONE',  ( 4.275831445896958607E-31, 1.000000000000000000, 1.224646799147353207E-16 ) ) ;
#17 = APPROVAL ( #3, 'UNSPECIFIED' ) ;
#18 = PERSON_AND_ORGANIZATION ( #52, #65 ) ;
#19 = APPROVAL_DATE_TIME ( #83, #17 ) ;
#20 = CC_DESIGN_APPROVAL ( #17, ( #88 ) ) ;
#21 = VERTEX_POINT ( 'NONE', #67 ) ;
#22 = PERSON_AND_ORGANIZATION_ROLE ( 'classification_officer' ) ;
#23 = DIRECTION ( 'NONE',  ( -3.491481338843133355E-15, 1.224646799147353207E-16, -1.000000000000000000 ) ) ;
#24 = EDGE_CURVE ( 'NONE', #143, #143, #120, .T. ) ;
#25 = DIRECTION ( 'NONE',  ( -3.491481338843133355E-15, 1.224646799147353207E-16, -1.000000000000000000 ) ) ;
#26 = FACE_OUTER_BOUND ( 'NONE', #50, .T. ) ;
#27 = DESIGN_CONTEXT ( 'detailed design', #117, 'design' ) ;
#28 =( LENGTH_UNIT ( ) NAMED_UNIT ( * ) SI_UNIT ( .MILLI., .METRE. ) );
#29 = CLOSED_SHELL ( 'NONE', ( #118, #54, #139, #112 ) ) ;
#30 = FACE_OUTER_BOUND ( 'NONE', #161, .T. ) ;
#31 = PERSON_AND_ORGANIZATION_ROLE ( 'creator' ) ;
#32 = VERTEX_POINT ( 'NONE', #81 ) ;
#33 = DATE_AND_TIME ( #119, #165 ) ;
#34 = DIRECTION ( 'NONE',  ( 4.622231866529366047E-31, 1.000000000000000000, 1.301042606982605321E-16 ) ) ;
#35 = EDGE_LOOP ( 'NONE', ( #127 ) ) ;
#36 = ORIENTED_EDGE ( 'NONE', *, *, #109, .F. ) ;
#37 = PRODUCT_DEFINITION_FORMATION_WITH_SPECIFIED_SOURCE ( 'ANY', '', #155, .NOT_KNOWN. ) ;
#38 = DATE_TIME_ROLE ( 'creation_date' ) ;
#39 = APPROVAL_PERSON_ORGANIZATION ( #146, #95, #151 ) ;
#40 = CYLINDRICAL_SURFACE ( 'NONE', #41, 5.000000000000000000 ) ;
#41 = AXIS2_PLACEMENT_3D ( 'NONE', #94, #61, #125 ) ;
#42 = CARTESIAN_POINT ( 'NONE',  ( 0.0000000000000000000, 20.00000000000000000, 0.0000000000000000000 ) ) ;
#43 = DIRECTION ( 'NONE',  ( 1.000000000000000000, 0.0000000000000000000, 0.0000000000000000000 ) ) ;
#44 = APPROVAL_ROLE ( '' ) ;
#45 = COORDINATED_UNIVERSAL_TIME_OFFSET ( 1, 0, .AHEAD. ) ;
#46 = CC_DESIGN_DATE_AND_TIME_ASSIGNMENT ( #9, #58, ( #133 ) ) ;
#47 = CARTESIAN_POINT ( 'NONE',  ( 6.982962677686258033E-15, -2.449293598294703456E-16, 1.999999999999997335 ) ) ;
#48 = AXIS2_PLACEMENT_3D ( 'NONE', #47, #100, #34 ) ;
#49 = APPROVAL_ROLE ( '' ) ;
#50 = EDGE_LOOP ( 'NONE', ( #87 ) ) ;
#51 = CC_DESIGN_PERSON_AND_ORGANIZATION_ASSIGNMENT ( #122, #85, ( #88 ) ) ;
#52 = PERSON ( 'UNSPECIFIED', 'UNSPECIFIED', 'UNSPECIFIED', ('UNSPECIFIED'), ('UNSPECIFIED'), ('UNSPECIFIED') ) ;
#53 = APPROVAL_PERSON_ORGANIZATION ( #110, #108, #44 ) ;
#54 = ADVANCED_FACE ( 'NONE', ( #30, #163 ), #150, .T. ) ;
#55 = AXIS2_PLACEMENT_3D ( 'NONE', #167, #73, #129 ) ;
#56 = COORDINATED_UNIVERSAL_TIME_OFFSET ( 1, 0, .AHEAD. ) ;
#57 = APPLICATION_PROTOCOL_DEFINITION ( 'international standard', 'config_control_design', 1994, #152 ) ;
#58 = DATE_TIME_ROLE ( 'classification_date' ) ;
#59 = DIRECTION ( 'NONE',  ( -3.491481338843133355E-15, 1.224646799147353207E-16, -1.000000000000000000 ) ) ;
#60 = COORDINATED_UNIVERSAL_TIME_OFFSET ( 1, 0, .AHEAD. ) ;
#61 = DIRECTION ( 'NONE',  ( -3.491481338843133355E-15, 1.224646799147353207E-16, -1.000000000000000000 ) ) ;
#62 = CC_DESIGN_DATE_AND_TIME_ASSIGNMENT ( #98, #38, ( #88 ) ) ;
#63 = VERTEX_POINT ( 'NONE', #138 ) ;
#64 = APPROVAL_STATUS ( 'not_yet_approved' ) ;
#65 = ORGANIZATION ( 'UNSPECIFIED', 'UNSPECIFIED', '' ) ;
#66 = CC_DESIGN_SECURITY_CLASSIFICATION ( #133, ( #37 ) ) ;
#67 = CARTESIAN_POINT ( 'NONE',  ( 0.0000000000000000000, 5.000000000000000000, 0.0000000000000000000 ) ) ;
#68 = CALENDAR_DATE ( 2021, 6, 12 ) ;
#69 =( NAMED_UNIT ( * ) PLANE_ANGLE_UNIT ( ) SI_UNIT ( $, .RADIAN. ) );
#70 = CIRCLE ( 'NONE', #75, 5.000000000000000000 ) ;
#71 = PRODUCT_DEFINITION_SHAPE ( 'NONE', 'NONE',  #88 ) ;
#72 = PERSON_AND_ORGANIZATION ( #52, #65 ) ;
#73 = DIRECTION ( 'NONE',  ( 3.491481338843133355E-15, -1.224646799147353207E-16, 1.000000000000000000 ) ) ;
#74 = DIRECTION ( 'NONE',  ( 4.275831445896958607E-31, 1.000000000000000000, 1.224646799147353207E-16 ) ) ;
#75 = AXIS2_PLACEMENT_3D ( 'NONE', #145, #25, #158 ) ;
#76 = PLANE ( 'NONE',  #5 ) ;
#77 = MANIFOLD_SOLID_BREP ( 'Corps-Déplacer/Copier1', #29 ) ;
#78 = CIRCLE ( 'NONE', #48, 20.00000000000000000 ) ;
#79 = EDGE_CURVE ( 'NONE', #32, #32, #78, .T. ) ;
#80 = PERSON_AND_ORGANIZATION_ROLE ( 'design_owner' ) ;
#81 = CARTESIAN_POINT ( 'NONE',  ( 6.982962677686266711E-15, 20.00000000000000000, 2.000000000000000000 ) ) ;
#82 = DIRECTION ( 'NONE',  ( 0.0000000000000000000, 0.0000000000000000000, 1.000000000000000000 ) ) ;
#83 = DATE_AND_TIME ( #96, #101 ) ;
#84 = CC_DESIGN_APPROVAL ( #108, ( #133 ) ) ;
#85 = PERSON_AND_ORGANIZATION_ROLE ( 'creator' ) ;
#86 = FACE_OUTER_BOUND ( 'NONE', #115, .T. ) ;
#87 = ORIENTED_EDGE ( 'NONE', *, *, #104, .F. ) ;
#88 = PRODUCT_DEFINITION ( 'UNKNOWN', '', #37, #27 ) ;
#89 = APPROVAL_DATE_TIME ( #149, #108 ) ;
#90 = EDGE_LOOP ( 'NONE', ( #105 ) ) ;
#91 = AXIS2_PLACEMENT_3D ( 'NONE', #11, #82, #43 ) ;
#92 = FACE_BOUND ( 'NONE', #4, .T. ) ;
#93 = CARTESIAN_POINT ( 'NONE',  ( -2.137915722948479128E-30, 7.498798913309288039E-32, -6.123233995736766282E-16 ) ) ;
#94 = CARTESIAN_POINT ( 'NONE',  ( 0.0000000000000000000, 0.0000000000000000000, 0.0000000000000000000 ) ) ;
#95 = APPROVAL ( #64, 'UNSPECIFIED' ) ;
#96 = CALENDAR_DATE ( 2021, 6, 12 ) ;
#97 = COORDINATED_UNIVERSAL_TIME_OFFSET ( 1, 0, .AHEAD. ) ;
#98 = DATE_AND_TIME ( #68, #114 ) ;
#99 = EDGE_LOOP ( 'NONE', ( #113 ) ) ;
#100 = DIRECTION ( 'NONE',  ( -3.491481338843133355E-15, 1.224646799147353207E-16, -1.000000000000000000 ) ) ;
#101 = LOCAL_TIME ( 14, 0, 6.000000000000000000, #137 ) ;
#102 = CALENDAR_DATE ( 2021, 6, 12 ) ;
#103 = DIRECTION ( 'NONE',  ( -3.491481338843133355E-15, 1.224646799147353207E-16, -1.000000000000000000 ) ) ;
#104 = EDGE_CURVE ( 'NONE', #63, #63, #70, .T. ) ;
#105 = ORIENTED_EDGE ( 'NONE', *, *, #24, .F. ) ;
#106 = FACE_OUTER_BOUND ( 'NONE', #35, .T. ) ;
#107 = CC_DESIGN_PERSON_AND_ORGANIZATION_ASSIGNMENT ( #142, #22, ( #133 ) ) ;
#108 = APPROVAL ( #160, 'UNSPECIFIED' ) ;
#109 = EDGE_CURVE ( 'NONE', #21, #21, #121, .T. ) ;
#110 = PERSON_AND_ORGANIZATION ( #52, #65 ) ;
#111 = ORIENTED_EDGE ( 'NONE', *, *, #24, .T. ) ;
#112 = ADVANCED_FACE ( 'NONE', ( #106, #26 ), #40, .F. ) ;
#113 = ORIENTED_EDGE ( 'NONE', *, *, #79, .F. ) ;
#114 = LOCAL_TIME ( 14, 0, 6.000000000000000000, #45 ) ;
#115 = EDGE_LOOP ( 'NONE', ( #111 ) ) ;
#116 = EDGE_LOOP ( 'NONE', ( #156 ) ) ;
#117 = APPLICATION_CONTEXT ( 'configuration controlled 3d designs of mechanical parts and assemblies' ) ;
#118 = ADVANCED_FACE ( 'NONE', ( #86, #92 ), #76, .T. ) ;
#119 = CALENDAR_DATE ( 2021, 6, 12 ) ;
#120 = CIRCLE ( 'NONE', #140, 20.00000000000000000 ) ;
#121 = CIRCLE ( 'NONE', #157, 5.000000000000000000 ) ;
#122 = PERSON_AND_ORGANIZATION ( #52, #65 ) ;
#123 = APPLICATION_PROTOCOL_DEFINITION ( 'international standard', 'config_control_design', 1994, #117 ) ;
#124 = PERSON_AND_ORGANIZATION ( #52, #65 ) ;
#125 = DIRECTION ( 'NONE',  ( 4.275831445896958607E-31, 1.000000000000000000, 1.224646799147353207E-16 ) ) ;
#126 = CC_DESIGN_PERSON_AND_ORGANIZATION_ASSIGNMENT ( #72, #162, ( #37 ) ) ;
#127 = ORIENTED_EDGE ( 'NONE', *, *, #109, .T. ) ;
#128 = CALENDAR_DATE ( 2021, 6, 12 ) ;
#129 = DIRECTION ( 'NONE',  ( -4.275831445896958607E-31, -1.000000000000000000, -1.224646799147353207E-16 ) ) ;
#130 = UNCERTAINTY_MEASURE_WITH_UNIT (LENGTH_MEASURE( 1.000000000000000082E-05 ), #28, 'distance_accuracy_value', 'NONE');
#131 = DIRECTION ( 'NONE',  ( -3.491481338843133355E-15, 1.224646799147353207E-16, -1.000000000000000000 ) ) ;
#132 = CARTESIAN_POINT ( 'NONE',  ( -3.206873584422719743E-30, 5.000000000000000000, -9.184850993605149917E-16 ) ) ;
#133 = SECURITY_CLASSIFICATION ( '', '', #154 ) ;
#134 = PLANE ( 'NONE',  #55 ) ;
#135 = PERSON_AND_ORGANIZATION ( #52, #65 ) ;
#136 = ADVANCED_BREP_SHAPE_REPRESENTATION ( '656', ( #77, #91 ), #153 ) ;
#137 = COORDINATED_UNIVERSAL_TIME_OFFSET ( 1, 0, .AHEAD. ) ;
#138 = CARTESIAN_POINT ( 'NONE',  ( 6.982962677686266711E-15, 5.000000000000000000, 2.000000000000000000 ) ) ;
#139 = ADVANCED_FACE ( 'NONE', ( #8, #15 ), #134, .T. ) ;
#140 = AXIS2_PLACEMENT_3D ( 'NONE', #159, #23, #7 ) ;
#141 = LOCAL_TIME ( 14, 0, 6.000000000000000000, #97 ) ;
#142 = PERSON_AND_ORGANIZATION ( #52, #65 ) ;
#143 = VERTEX_POINT ( 'NONE', #42 ) ;
#144 = APPROVAL_DATE_TIME ( #33, #95 ) ;
#145 = CARTESIAN_POINT ( 'NONE',  ( 6.982962677686265133E-15, -2.449293598294705921E-16, 1.999999999999999556 ) ) ;
#146 = PERSON_AND_ORGANIZATION ( #52, #65 ) ;
#147 = CC_DESIGN_APPROVAL ( #95, ( #37 ) ) ;
#148 = SHAPE_DEFINITION_REPRESENTATION ( #71, #136 ) ;
#149 = DATE_AND_TIME ( #128, #141 ) ;
#150 = CYLINDRICAL_SURFACE ( 'NONE', #166, 20.00000000000000000 ) ;
#151 = APPROVAL_ROLE ( '' ) ;
#152 = APPLICATION_CONTEXT ( 'configuration controlled 3d designs of mechanical parts and assemblies' ) ;
#153 =( GEOMETRIC_REPRESENTATION_CONTEXT ( 3 ) GLOBAL_UNCERTAINTY_ASSIGNED_CONTEXT ( ( #130 ) ) GLOBAL_UNIT_ASSIGNED_CONTEXT ( ( #28, #69, #13 ) ) REPRESENTATION_CONTEXT ( 'NONE', 'WORKASPACE' ) );
#154 = SECURITY_CLASSIFICATION_LEVEL ( 'unclassified' ) ;
#155 = PRODUCT ( '656', '656', '', ( #6 ) ) ;
#156 = ORIENTED_EDGE ( 'NONE', *, *, #104, .T. ) ;
#157 = AXIS2_PLACEMENT_3D ( 'NONE', #93, #103, #74 ) ;
#158 = DIRECTION ( 'NONE',  ( 3.081487911019577365E-31, 1.000000000000000000, 8.673617379884035472E-17 ) ) ;
#159 = CARTESIAN_POINT ( 'NONE',  ( -8.551662891793916512E-30, 2.999519565323715216E-31, -2.449293598294706513E-15 ) ) ;
#160 = APPROVAL_STATUS ( 'not_yet_approved' ) ;
#161 = EDGE_LOOP ( 'NONE', ( #14 ) ) ;
#162 = PERSON_AND_ORGANIZATION_ROLE ( 'design_supplier' ) ;
#163 = FACE_OUTER_BOUND ( 'NONE', #90, .T. ) ;
#164 = CC_DESIGN_PERSON_AND_ORGANIZATION_ASSIGNMENT ( #135, #31, ( #37 ) ) ;
#165 = LOCAL_TIME ( 14, 0, 6.000000000000000000, #56 ) ;
#166 = AXIS2_PLACEMENT_3D ( 'NONE', #10, #59, #16 ) ;
#167 = CARTESIAN_POINT ( 'NONE',  ( 6.982962677686263555E-15, 5.000000000000000000, 1.999999999999999112 ) ) ;
#168 = CC_DESIGN_PERSON_AND_ORGANIZATION_ASSIGNMENT ( #18, #80, ( #155 ) ) ;
#169 = APPROVAL_PERSON_ORGANIZATION ( #124, #17, #49 ) ;
ENDSEC;
END-ISO-10303-21;
