ISO-10303-21;
HEADER;
FILE_DESCRIPTION (( 'STEP AP203' ),
    '1' );
FILE_NAME ('653.step',
    '2021-12-06T13:00:06',
    ( '' ),
    ( '' ),
    'SwSTEP 2.0',
    'SolidWorks 2019',
    '' );
FILE_SCHEMA (( 'CONFIG_CONTROL_DESIGN' ));
ENDSEC;

DATA;
#1 = UNCERTAINTY_MEASURE_WITH_UNIT (LENGTH_MEASURE( 1.000000000000000082E-05 ), #114, 'distance_accuracy_value', 'NONE');
#2 = PRODUCT_DEFINITION_SHAPE ( 'NONE', 'NONE',  #75 ) ;
#3 = CYLINDRICAL_SURFACE ( 'NONE', #57, 5.000000000000000000 ) ;
#4 = ORIENTED_EDGE ( 'NONE', *, *, #88, .F. ) ;
#5 = DATE_AND_TIME ( #21, #46 ) ;
#6 = ORIENTED_EDGE ( 'NONE', *, *, #113, .T. ) ;
#7 = APPROVAL_DATE_TIME ( #5, #81 ) ;
#8 = FACE_OUTER_BOUND ( 'NONE', #164, .T. ) ;
#9 = DIRECTION ( 'NONE',  ( 1.000000000000000000, 0.0000000000000000000, 0.0000000000000000000 ) ) ;
#10 = AXIS2_PLACEMENT_3D ( 'NONE', #154, #48, #111 ) ;
#11 = APPROVAL ( #108, 'UNSPECIFIED' ) ;
#12 = CLOSED_SHELL ( 'NONE', ( #19, #149, #162, #155 ) ) ;
#13 = DATE_TIME_ROLE ( 'creation_date' ) ;
#14 = EDGE_LOOP ( 'NONE', ( #4 ) ) ;
#15 = COORDINATED_UNIVERSAL_TIME_OFFSET ( 1, 0, .AHEAD. ) ;
#16 =( NAMED_UNIT ( * ) SI_UNIT ( $, .STERADIAN. ) SOLID_ANGLE_UNIT ( ) );
#17 = MECHANICAL_CONTEXT ( 'NONE', #93, 'mechanical' ) ;
#18 = CARTESIAN_POINT ( 'NONE',  ( 3.491481338843130200E-15, 5.000000000000000000, 0.9999999999999991118 ) ) ;
#19 = ADVANCED_FACE ( 'NONE', ( #116, #157 ), #58, .T. ) ;
#20 = EDGE_LOOP ( 'NONE', ( #6 ) ) ;
#21 = CALENDAR_DATE ( 2021, 6, 12 ) ;
#22 = CARTESIAN_POINT ( 'NONE',  ( -8.551662891793916512E-30, 2.999519565323715216E-31, -2.449293598294706513E-15 ) ) ;
#23 = CARTESIAN_POINT ( 'NONE',  ( 3.491481338843125072E-15, -1.224646799147350249E-16, 0.9999999999999976685 ) ) ;
#24 = COORDINATED_UNIVERSAL_TIME_OFFSET ( 1, 0, .AHEAD. ) ;
#25 = CARTESIAN_POINT ( 'NONE',  ( 3.491481338843133355E-15, 5.000000000000000000, 1.000000000000000000 ) ) ;
#26 = MANIFOLD_SOLID_BREP ( 'Corps-Déplacer/Copier1', #12 ) ;
#27 = EDGE_CURVE ( 'NONE', #132, #132, #161, .T. ) ;
#28 = AXIS2_PLACEMENT_3D ( 'NONE', #67, #83, #85 ) ;
#29 = APPROVAL_ROLE ( '' ) ;
#30 = APPROVAL ( #53, 'UNSPECIFIED' ) ;
#31 = CC_DESIGN_PERSON_AND_ORGANIZATION_ASSIGNMENT ( #94, #38, ( #140 ) ) ;
#32 = DATE_AND_TIME ( #163, #54 ) ;
#33 = CYLINDRICAL_SURFACE ( 'NONE', #28, 20.00000000000000000 ) ;
#34 = DIRECTION ( 'NONE',  ( 4.622231866529366047E-31, 1.000000000000000000, 1.301042606982605321E-16 ) ) ;
#35 = LOCAL_TIME ( 14, 0, 6.000000000000000000, #104 ) ;
#36 = DIRECTION ( 'NONE',  ( -4.275831445896958607E-31, -1.000000000000000000, -1.224646799147353207E-16 ) ) ;
#37 = DIRECTION ( 'NONE',  ( 4.237045877651918877E-31, 1.000000000000000000, 1.192622389734054877E-16 ) ) ;
#38 = PERSON_AND_ORGANIZATION_ROLE ( 'design_supplier' ) ;
#39 = FACE_OUTER_BOUND ( 'NONE', #98, .T. ) ;
#40 = PERSON_AND_ORGANIZATION ( #150, #118 ) ;
#41 = COORDINATED_UNIVERSAL_TIME_OFFSET ( 1, 0, .AHEAD. ) ;
#42 = APPROVAL_PERSON_ORGANIZATION ( #79, #11, #29 ) ;
#43 = CC_DESIGN_PERSON_AND_ORGANIZATION_ASSIGNMENT ( #103, #66, ( #120 ) ) ;
#44 = CALENDAR_DATE ( 2021, 6, 12 ) ;
#45 = CC_DESIGN_PERSON_AND_ORGANIZATION_ASSIGNMENT ( #40, #119, ( #75 ) ) ;
#46 = LOCAL_TIME ( 14, 0, 6.000000000000000000, #15 ) ;
#47 = CARTESIAN_POINT ( 'NONE',  ( 0.0000000000000000000, 20.00000000000000000, 0.0000000000000000000 ) ) ;
#48 = DIRECTION ( 'NONE',  ( -3.491481338843133355E-15, 1.224646799147353207E-16, -1.000000000000000000 ) ) ;
#49 = PLANE ( 'NONE',  #130 ) ;
#50 = EDGE_LOOP ( 'NONE', ( #110 ) ) ;
#51 = SECURITY_CLASSIFICATION_LEVEL ( 'unclassified' ) ;
#52 = APPROVAL_PERSON_ORGANIZATION ( #169, #30, #121 ) ;
#53 = APPROVAL_STATUS ( 'not_yet_approved' ) ;
#54 = LOCAL_TIME ( 14, 0, 6.000000000000000000, #24 ) ;
#55 = CIRCLE ( 'NONE', #100, 20.00000000000000000 ) ;
#56 = DATE_AND_TIME ( #159, #152 ) ;
#57 = AXIS2_PLACEMENT_3D ( 'NONE', #143, #115, #117 ) ;
#58 = PLANE ( 'NONE',  #139 ) ;
#59 = ORIENTED_EDGE ( 'NONE', *, *, #113, .F. ) ;
#60 =( NAMED_UNIT ( * ) PLANE_ANGLE_UNIT ( ) SI_UNIT ( $, .RADIAN. ) );
#61 = ORIENTED_EDGE ( 'NONE', *, *, #65, .F. ) ;
#62 = CC_DESIGN_SECURITY_CLASSIFICATION ( #105, ( #140 ) ) ;
#63 = FACE_OUTER_BOUND ( 'NONE', #99, .T. ) ;
#64 = PERSON_AND_ORGANIZATION ( #150, #118 ) ;
#65 = EDGE_CURVE ( 'NONE', #166, #166, #135, .T. ) ;
#66 = PERSON_AND_ORGANIZATION_ROLE ( 'design_owner' ) ;
#67 = CARTESIAN_POINT ( 'NONE',  ( 0.0000000000000000000, 0.0000000000000000000, 0.0000000000000000000 ) ) ;
#68 = APPROVAL_DATE_TIME ( #95, #11 ) ;
#69 = CC_DESIGN_DATE_AND_TIME_ASSIGNMENT ( #56, #13, ( #75 ) ) ;
#70 = ADVANCED_BREP_SHAPE_REPRESENTATION ( '653', ( #26, #90 ), #77 ) ;
#71 = PERSON_AND_ORGANIZATION ( #150, #118 ) ;
#72 = ORIENTED_EDGE ( 'NONE', *, *, #88, .T. ) ;
#73 = ORIENTED_EDGE ( 'NONE', *, *, #65, .T. ) ;
#74 = CARTESIAN_POINT ( 'NONE',  ( 0.0000000000000000000, 5.000000000000000000, 0.0000000000000000000 ) ) ;
#75 = PRODUCT_DEFINITION ( 'UNKNOWN', '', #140, #160 ) ;
#76 = DIRECTION ( 'NONE',  ( -3.491481338843133355E-15, 1.224646799147353207E-16, -1.000000000000000000 ) ) ;
#77 =( GEOMETRIC_REPRESENTATION_CONTEXT ( 3 ) GLOBAL_UNCERTAINTY_ASSIGNED_CONTEXT ( ( #1 ) ) GLOBAL_UNIT_ASSIGNED_CONTEXT ( ( #114, #60, #16 ) ) REPRESENTATION_CONTEXT ( 'NONE', 'WORKASPACE' ) );
#78 = PRODUCT_RELATED_PRODUCT_CATEGORY ( 'detail', '', ( #120 ) ) ;
#79 = PERSON_AND_ORGANIZATION ( #150, #118 ) ;
#80 = CC_DESIGN_APPROVAL ( #11, ( #105 ) ) ;
#81 = APPROVAL ( #92, 'UNSPECIFIED' ) ;
#82 = CIRCLE ( 'NONE', #10, 5.000000000000000000 ) ;
#83 = DIRECTION ( 'NONE',  ( -3.491481338843133355E-15, 1.224646799147353207E-16, -1.000000000000000000 ) ) ;
#84 = CARTESIAN_POINT ( 'NONE',  ( 0.0000000000000000000, 0.0000000000000000000, 0.0000000000000000000 ) ) ;
#85 = DIRECTION ( 'NONE',  ( 4.275831445896958607E-31, 1.000000000000000000, 1.224646799147353207E-16 ) ) ;
#86 = DIRECTION ( 'NONE',  ( -3.491481338843133355E-15, 1.224646799147353207E-16, -1.000000000000000000 ) ) ;
#87 = DIRECTION ( 'NONE',  ( -3.491481338843133355E-15, 1.224646799147353207E-16, -1.000000000000000000 ) ) ;
#88 = EDGE_CURVE ( 'NONE', #168, #168, #82, .T. ) ;
#89 = DATE_AND_TIME ( #122, #96 ) ;
#90 = AXIS2_PLACEMENT_3D ( 'NONE', #84, #134, #9 ) ;
#91 = CC_DESIGN_PERSON_AND_ORGANIZATION_ASSIGNMENT ( #101, #146, ( #105 ) ) ;
#92 = APPROVAL_STATUS ( 'not_yet_approved' ) ;
#93 = APPLICATION_CONTEXT ( 'configuration controlled 3d designs of mechanical parts and assemblies' ) ;
#94 = PERSON_AND_ORGANIZATION ( #150, #118 ) ;
#95 = DATE_AND_TIME ( #44, #35 ) ;
#96 = LOCAL_TIME ( 14, 0, 6.000000000000000000, #41 ) ;
#97 = DIRECTION ( 'NONE',  ( -3.491481338843133355E-15, 1.224646799147353207E-16, -1.000000000000000000 ) ) ;
#98 = EDGE_LOOP ( 'NONE', ( #144 ) ) ;
#99 = EDGE_LOOP ( 'NONE', ( #61 ) ) ;
#100 = AXIS2_PLACEMENT_3D ( 'NONE', #22, #87, #102 ) ;
#101 = PERSON_AND_ORGANIZATION ( #150, #118 ) ;
#102 = DIRECTION ( 'NONE',  ( 4.275831445896958607E-31, 1.000000000000000000, 1.224646799147353207E-16 ) ) ;
#103 = PERSON_AND_ORGANIZATION ( #150, #118 ) ;
#104 = COORDINATED_UNIVERSAL_TIME_OFFSET ( 1, 0, .AHEAD. ) ;
#105 = SECURITY_CLASSIFICATION ( '', '', #51 ) ;
#106 = COORDINATED_UNIVERSAL_TIME_OFFSET ( 1, 0, .AHEAD. ) ;
#107 = APPLICATION_CONTEXT ( 'configuration controlled 3d designs of mechanical parts and assemblies' ) ;
#108 = APPROVAL_STATUS ( 'not_yet_approved' ) ;
#109 = CARTESIAN_POINT ( 'NONE',  ( -3.206873584422719743E-30, 5.000000000000000000, -9.184850993605149917E-16 ) ) ;
#110 = ORIENTED_EDGE ( 'NONE', *, *, #27, .T. ) ;
#111 = DIRECTION ( 'NONE',  ( 4.275831445896958607E-31, 1.000000000000000000, 1.224646799147353207E-16 ) ) ;
#112 = CC_DESIGN_APPROVAL ( #81, ( #140 ) ) ;
#113 = EDGE_CURVE ( 'NONE', #129, #129, #55, .T. ) ;
#114 =( LENGTH_UNIT ( ) NAMED_UNIT ( * ) SI_UNIT ( .MILLI., .METRE. ) );
#115 = DIRECTION ( 'NONE',  ( -3.491481338843133355E-15, 1.224646799147353207E-16, -1.000000000000000000 ) ) ;
#116 = FACE_OUTER_BOUND ( 'NONE', #20, .T. ) ;
#117 = DIRECTION ( 'NONE',  ( 4.275831445896958607E-31, 1.000000000000000000, 1.224646799147353207E-16 ) ) ;
#118 = ORGANIZATION ( 'UNSPECIFIED', 'UNSPECIFIED', '' ) ;
#119 = PERSON_AND_ORGANIZATION_ROLE ( 'creator' ) ;
#120 = PRODUCT ( '653', '653', '', ( #17 ) ) ;
#121 = APPROVAL_ROLE ( '' ) ;
#122 = CALENDAR_DATE ( 2021, 6, 12 ) ;
#123 = APPROVAL_PERSON_ORGANIZATION ( #71, #81, #153 ) ;
#124 = AXIS2_PLACEMENT_3D ( 'NONE', #23, #86, #37 ) ;
#125 = EDGE_LOOP ( 'NONE', ( #72 ) ) ;
#126 = CC_DESIGN_PERSON_AND_ORGANIZATION_ASSIGNMENT ( #64, #167, ( #140 ) ) ;
#127 = CARTESIAN_POINT ( 'NONE',  ( 3.491481338843130989E-15, -1.224646799147352468E-16, 0.9999999999999993339 ) ) ;
#128 = EDGE_LOOP ( 'NONE', ( #73 ) ) ;
#129 = VERTEX_POINT ( 'NONE', #47 ) ;
#130 = AXIS2_PLACEMENT_3D ( 'NONE', #18, #147, #36 ) ;
#131 = CARTESIAN_POINT ( 'NONE',  ( 3.491481338843133355E-15, 20.00000000000000000, 1.000000000000000000 ) ) ;
#132 = VERTEX_POINT ( 'NONE', #131 ) ;
#133 = DIRECTION ( 'NONE',  ( 4.275831445896958607E-31, 1.000000000000000000, 1.224646799147353207E-16 ) ) ;
#134 = DIRECTION ( 'NONE',  ( 0.0000000000000000000, 0.0000000000000000000, 1.000000000000000000 ) ) ;
#135 = CIRCLE ( 'NONE', #151, 5.000000000000000000 ) ;
#136 = SHAPE_DEFINITION_REPRESENTATION ( #2, #70 ) ;
#137 = CC_DESIGN_DATE_AND_TIME_ASSIGNMENT ( #32, #165, ( #105 ) ) ;
#138 = APPROVAL_DATE_TIME ( #89, #30 ) ;
#139 = AXIS2_PLACEMENT_3D ( 'NONE', #109, #76, #133 ) ;
#140 = PRODUCT_DEFINITION_FORMATION_WITH_SPECIFIED_SOURCE ( 'ANY', '', #120, .NOT_KNOWN. ) ;
#141 = FACE_BOUND ( 'NONE', #128, .T. ) ;
#142 = APPLICATION_PROTOCOL_DEFINITION ( 'international standard', 'config_control_design', 1994, #93 ) ;
#143 = CARTESIAN_POINT ( 'NONE',  ( 0.0000000000000000000, 0.0000000000000000000, 0.0000000000000000000 ) ) ;
#144 = ORIENTED_EDGE ( 'NONE', *, *, #27, .F. ) ;
#145 = FACE_OUTER_BOUND ( 'NONE', #50, .T. ) ;
#146 = PERSON_AND_ORGANIZATION_ROLE ( 'classification_officer' ) ;
#147 = DIRECTION ( 'NONE',  ( 3.491481338843133355E-15, -1.224646799147353207E-16, 1.000000000000000000 ) ) ;
#148 = CC_DESIGN_APPROVAL ( #30, ( #75 ) ) ;
#149 = ADVANCED_FACE ( 'NONE', ( #145, #8 ), #33, .T. ) ;
#150 = PERSON ( 'UNSPECIFIED', 'UNSPECIFIED', 'UNSPECIFIED', ('UNSPECIFIED'), ('UNSPECIFIED'), ('UNSPECIFIED') ) ;
#151 = AXIS2_PLACEMENT_3D ( 'NONE', #127, #97, #34 ) ;
#152 = LOCAL_TIME ( 14, 0, 6.000000000000000000, #106 ) ;
#153 = APPROVAL_ROLE ( '' ) ;
#154 = CARTESIAN_POINT ( 'NONE',  ( -2.137915722948479128E-30, 7.498798913309288039E-32, -6.123233995736766282E-16 ) ) ;
#155 = ADVANCED_FACE ( 'NONE', ( #156, #63 ), #3, .F. ) ;
#156 = FACE_OUTER_BOUND ( 'NONE', #125, .T. ) ;
#157 = FACE_BOUND ( 'NONE', #14, .T. ) ;
#158 = APPLICATION_PROTOCOL_DEFINITION ( 'international standard', 'config_control_design', 1994, #107 ) ;
#159 = CALENDAR_DATE ( 2021, 6, 12 ) ;
#160 = DESIGN_CONTEXT ( 'detailed design', #107, 'design' ) ;
#161 = CIRCLE ( 'NONE', #124, 20.00000000000000000 ) ;
#162 = ADVANCED_FACE ( 'NONE', ( #141, #39 ), #49, .T. ) ;
#163 = CALENDAR_DATE ( 2021, 6, 12 ) ;
#164 = EDGE_LOOP ( 'NONE', ( #59 ) ) ;
#165 = DATE_TIME_ROLE ( 'classification_date' ) ;
#166 = VERTEX_POINT ( 'NONE', #25 ) ;
#167 = PERSON_AND_ORGANIZATION_ROLE ( 'creator' ) ;
#168 = VERTEX_POINT ( 'NONE', #74 ) ;
#169 = PERSON_AND_ORGANIZATION ( #150, #118 ) ;
ENDSEC;
END-ISO-10303-21;
