ISO-10303-21;
HEADER;
FILE_DESCRIPTION (( 'STEP AP203' ),
    '1' );
FILE_NAME ('64985.step',
    '2021-11-01T10:35:30',
    ( '' ),
    ( '' ),
    'SwSTEP 2.0',
    'SolidWorks 2019',
    '' );
FILE_SCHEMA (( 'CONFIG_CONTROL_DESIGN' ));
ENDSEC;

DATA;
#1 = COORDINATED_UNIVERSAL_TIME_OFFSET ( 1, 0, .AHEAD. ) ;
#2 = ORGANIZATION ( 'UNSPECIFIED', 'UNSPECIFIED', '' ) ;
#3 = DIRECTION ( 'NONE',  ( 0.0000000000000000000, 1.000000000000000000, 0.0000000000000000000 ) ) ;
#4 = PLANE ( 'NONE',  #189 ) ;
#5 = DIRECTION ( 'NONE',  ( -3.491481338843133355E-15, 1.224646799147353207E-16, -1.000000000000000000 ) ) ;
#6 = DIRECTION ( 'NONE',  ( 0.0000000000000000000, 1.000000000000000000, 0.0000000000000000000 ) ) ;
#7 = CALENDAR_DATE ( 2021, 1, 11 ) ;
#8 = LOCAL_TIME ( 11, 35, 30.00000000000000000, #25 ) ;
#9 = APPROVAL_DATE_TIME ( #219, #66 ) ;
#10 = EDGE_CURVE ( 'NONE', #85, #85, #119, .T. ) ;
#11 = DATE_TIME_ROLE ( 'classification_date' ) ;
#12 = CARTESIAN_POINT ( 'NONE',  ( 1.316288464743861212E-13, 1.499999999999992228, 37.69999999999999574 ) ) ;
#13 = AXIS2_PLACEMENT_3D ( 'NONE', #120, #211, #6 ) ;
#14 = ORIENTED_EDGE ( 'NONE', *, *, #10, .F. ) ;
#15 = EDGE_LOOP ( 'NONE', ( #43 ) ) ;
#16 = ADVANCED_FACE ( 'NONE', ( #151, #19 ), #28, .T. ) ;
#17 = ORIENTED_EDGE ( 'NONE', *, *, #84, .F. ) ;
#18 = AXIS2_PLACEMENT_3D ( 'NONE', #159, #134, #3 ) ;
#19 = FACE_BOUND ( 'NONE', #75, .T. ) ;
#20 = CARTESIAN_POINT ( 'NONE',  ( -8.551680453529350800E-31, 2.999525725151307090E-32, -2.449298628175645296E-16 ) ) ;
#21 = DIRECTION ( 'NONE',  ( 4.275831445896958607E-31, 1.000000000000000000, 1.224646799147353207E-16 ) ) ;
#22 = CARTESIAN_POINT ( 'NONE',  ( 1.675911042644703695E-14, 1.124819836996386911E-32, 4.799999999999999822 ) ) ;
#23 = SECURITY_CLASSIFICATION ( '', '', #215 ) ;
#24 = FACE_OUTER_BOUND ( 'NONE', #223, .T. ) ;
#25 = COORDINATED_UNIVERSAL_TIME_OFFSET ( 1, 0, .AHEAD. ) ;
#26 = PERSON_AND_ORGANIZATION_ROLE ( 'design_supplier' ) ;
#27 = VERTEX_POINT ( 'NONE', #12 ) ;
#28 = CONICAL_SURFACE ( 'NONE', #205, 1.199999999999995959, 0.7853981633974468357 ) ;
#29 = CC_DESIGN_DATE_AND_TIME_ASSIGNMENT ( #165, #11, ( #23 ) ) ;
#30 = EDGE_LOOP ( 'NONE', ( #154 ) ) ;
#31 = APPROVAL_STATUS ( 'not_yet_approved' ) ;
#32 = EDGE_LOOP ( 'NONE', ( #201 ) ) ;
#33 = FACE_OUTER_BOUND ( 'NONE', #155, .T. ) ;
#34 = DIRECTION ( 'NONE',  ( -3.491481338843133355E-15, 1.224646799147353207E-16, -1.000000000000000000 ) ) ;
#35 = CARTESIAN_POINT ( 'NONE',  ( 1.675911042644703379E-14, -0.8000000000000014877, 4.799999999999998934 ) ) ;
#36 = CARTESIAN_POINT ( 'NONE',  ( 1.326762908760390423E-13, 8.998558695971047118E-33, 38.00000000000000000 ) ) ;
#37 = DIRECTION ( 'NONE',  ( 0.0000000000000000000, 0.0000000000000000000, 1.000000000000000000 ) ) ;
#38 = PERSON_AND_ORGANIZATION ( #194, #2 ) ;
#39 = EDGE_CURVE ( 'NONE', #121, #121, #156, .T. ) ;
#40 = CARTESIAN_POINT ( 'NONE',  ( 0.0000000000000000000, 0.0000000000000000000, 0.0000000000000000000 ) ) ;
#41 = CIRCLE ( 'NONE', #221, 1.499999999999996669 ) ;
#42 = PERSON_AND_ORGANIZATION ( #194, #2 ) ;
#43 = ORIENTED_EDGE ( 'NONE', *, *, #39, .F. ) ;
#44 = LOCAL_TIME ( 11, 35, 30.00000000000000000, #1 ) ;
#45 = EDGE_LOOP ( 'NONE', ( #114 ) ) ;
#46 = ADVANCED_FACE ( 'NONE', ( #89, #117 ), #202, .F. ) ;
#47 = MANIFOLD_SOLID_BREP ( 'Corps-Déplacer/Copier1[1]', #160 ) ;
#48 = DIRECTION ( 'NONE',  ( 0.0000000000000000000, 1.000000000000000000, 0.0000000000000000000 ) ) ;
#49 = DIRECTION ( 'NONE',  ( -3.491481338843133355E-15, 1.224646799147353207E-16, -1.000000000000000000 ) ) ;
#50 = DIRECTION ( 'NONE',  ( -4.285855558155654155E-31, -1.000000000000000000, -1.227517819005650812E-16 ) ) ;
#51 = DIRECTION ( 'NONE',  ( 3.491481338843133355E-15, -1.227517819005651059E-16, 1.000000000000000000 ) ) ;
#52 = FACE_OUTER_BOUND ( 'NONE', #15, .T. ) ;
#53 = ADVANCED_BREP_SHAPE_REPRESENTATION ( '64985', ( #47, #123, #146 ), #152 ) ;
#54 = CALENDAR_DATE ( 2021, 1, 11 ) ;
#55 = PERSON_AND_ORGANIZATION ( #194, #2 ) ;
#56 = APPROVAL ( #31, 'UNSPECIFIED' ) ;
#57 = CLOSED_SHELL ( 'NONE', ( #93, #171, #186 ) ) ;
#58 = CALENDAR_DATE ( 2021, 1, 11 ) ;
#59 = EDGE_LOOP ( 'NONE', ( #97 ) ) ;
#60 = UNCERTAINTY_MEASURE_WITH_UNIT (LENGTH_MEASURE( 1.000000000000000082E-05 ), #141, 'distance_accuracy_value', 'NONE');
#61 = ADVANCED_FACE ( 'NONE', ( #82 ), #161, .F. ) ;
#62 = DIRECTION ( 'NONE',  ( 0.0000000000000000000, -1.000000000000000000, 0.0000000000000000000 ) ) ;
#63 = DIRECTION ( 'NONE',  ( 3.491481338843133355E-15, -1.227517819005651059E-16, 1.000000000000000000 ) ) ;
#64 = DIRECTION ( 'NONE',  ( -4.275831445896958607E-31, -1.000000000000000000, -1.224646799147353207E-16 ) ) ;
#65 = CARTESIAN_POINT ( 'NONE',  ( -6.857368893049046473E-31, -0.7999999999999999334, -1.964028510409041842E-16 ) ) ;
#66 = APPROVAL ( #147, 'UNSPECIFIED' ) ;
#67 = CYLINDRICAL_SURFACE ( 'NONE', #167, 0.8000000000000003775 ) ;
#68 = PERSON_AND_ORGANIZATION_ROLE ( 'design_owner' ) ;
#69 = PRODUCT ( '64985', '64985', '', ( #183 ) ) ;
#70 = PERSON_AND_ORGANIZATION ( #194, #2 ) ;
#71 = DATE_AND_TIME ( #54, #182 ) ;
#72 = APPLICATION_PROTOCOL_DEFINITION ( 'international standard', 'config_control_design', 1994, #103 ) ;
#73 = CC_DESIGN_SECURITY_CLASSIFICATION ( #23, ( #218 ) ) ;
#74 = APPROVAL_ROLE ( '' ) ;
#75 = EDGE_LOOP ( 'NONE', ( #131 ) ) ;
#76 = LOCAL_TIME ( 11, 35, 30.00000000000000000, #127 ) ;
#77 = CARTESIAN_POINT ( 'NONE',  ( -3.428684446524523675E-31, -1.049468268505619394E-32, -9.820142552045210441E-17 ) ) ;
#78 = DATE_AND_TIME ( #190, #44 ) ;
#79 = PRODUCT_DEFINITION_SHAPE ( 'NONE', 'NONE',  #98 ) ;
#80 = ORIENTED_EDGE ( 'NONE', *, *, #139, .F. ) ;
#81 = APPROVAL_PERSON_ORGANIZATION ( #179, #181, #126 ) ;
#82 = FACE_OUTER_BOUND ( 'NONE', #149, .T. ) ;
#83 = FACE_OUTER_BOUND ( 'NONE', #59, .T. ) ;
#84 = EDGE_CURVE ( 'NONE', #106, #106, #86, .T. ) ;
#85 = VERTEX_POINT ( 'NONE', #65 ) ;
#86 = CIRCLE ( 'NONE', #142, 0.8000000000000009326 ) ;
#87 = CC_DESIGN_PERSON_AND_ORGANIZATION_ASSIGNMENT ( #70, #26, ( #218 ) ) ;
#88 = CARTESIAN_POINT ( 'NONE',  ( -6.413731847436034514E-31, 0.0000000000000000000, -1.836965810494968570E-16 ) ) ;
#89 = FACE_OUTER_BOUND ( 'NONE', #220, .T. ) ;
#90 = APPROVAL_DATE_TIME ( #163, #181 ) ;
#91 = AXIS2_PLACEMENT_3D ( 'NONE', #207, #49, #118 ) ;
#92 = DIRECTION ( 'NONE',  ( 1.000000000000000000, 0.0000000000000000000, 0.0000000000000000000 ) ) ;
#93 = ADVANCED_FACE ( 'NONE', ( #24 ), #109, .T. ) ;
#94 = CARTESIAN_POINT ( 'NONE',  ( 2.818537986016578356E-14, 1.499999999999994449, 8.072613634390702231 ) ) ;
#95 = EDGE_LOOP ( 'NONE', ( #80 ) ) ;
#96 = DIRECTION ( 'NONE',  ( 3.491481338843133355E-15, -1.227517819005651059E-16, 1.000000000000000000 ) ) ;
#97 = ORIENTED_EDGE ( 'NONE', *, *, #10, .T. ) ;
#98 = PRODUCT_DEFINITION ( 'UNKNOWN', '', #218, #99 ) ;
#99 = DESIGN_CONTEXT ( 'detailed design', #188, 'design' ) ;
#100 = ORIENTED_EDGE ( 'NONE', *, *, #108, .F. ) ;
#101 = DIRECTION ( 'NONE',  ( 3.491481338843133355E-15, -1.227517819005651059E-16, 1.000000000000000000 ) ) ;
#102 = LOCAL_TIME ( 11, 35, 30.00000000000000000, #213 ) ;
#103 = APPLICATION_CONTEXT ( 'configuration controlled 3d designs of mechanical parts and assemblies' ) ;
#104 = DIRECTION ( 'NONE',  ( 3.491481338843133355E-15, -1.224646799147353207E-16, 1.000000000000000000 ) ) ;
#105 = DIRECTION ( 'NONE',  ( -4.275831445896958607E-31, -1.000000000000000000, -1.224646799147353207E-16 ) ) ;
#106 = VERTEX_POINT ( 'NONE', #178 ) ;
#107 = AXIS2_PLACEMENT_3D ( 'NONE', #175, #63, #137 ) ;
#108 = EDGE_CURVE ( 'NONE', #176, #176, #116, .T. ) ;
#109 = PLANE ( 'NONE',  #177 ) ;
#110 = DATE_TIME_ROLE ( 'creation_date' ) ;
#111 = CC_DESIGN_PERSON_AND_ORGANIZATION_ASSIGNMENT ( #38, #130, ( #218 ) ) ;
#112 = PERSON_AND_ORGANIZATION_ROLE ( 'classification_officer' ) ;
#113 = APPROVAL_ROLE ( '' ) ;
#114 = ORIENTED_EDGE ( 'NONE', *, *, #148, .F. ) ;
#115 = APPROVAL_PERSON_ORGANIZATION ( #200, #56, #74 ) ;
#116 = CIRCLE ( 'NONE', #18, 1.199999999999995959 ) ;
#117 = FACE_OUTER_BOUND ( 'NONE', #32, .T. ) ;
#118 = DIRECTION ( 'NONE',  ( 4.275831445896958607E-31, 1.000000000000000000, 1.224646799147353207E-16 ) ) ;
#119 = CIRCLE ( 'NONE', #125, 0.7999999999999999334 ) ;
#120 = CARTESIAN_POINT ( 'NONE',  ( 2.818537986016578356E-14, -4.017191550935433748E-16, 8.072613634390702231 ) ) ;
#121 = VERTEX_POINT ( 'NONE', #35 ) ;
#122 = ADVANCED_FACE ( 'NONE', ( #196, #135 ), #195, .T. ) ;
#123 = MANIFOLD_SOLID_BREP ( 'Corps-Déplacer/Copier1[2]', #57 ) ;
#124 = DIRECTION ( 'NONE',  ( -4.275831445896958607E-31, -1.000000000000000000, -1.224646799147353207E-16 ) ) ;
#125 = AXIS2_PLACEMENT_3D ( 'NONE', #77, #96, #170 ) ;
#126 = APPROVAL_ROLE ( '' ) ;
#127 = COORDINATED_UNIVERSAL_TIME_OFFSET ( 1, 0, .AHEAD. ) ;
#128 =( NAMED_UNIT ( * ) SI_UNIT ( $, .STERADIAN. ) SOLID_ANGLE_UNIT ( ) );
#129 = AXIS2_PLACEMENT_3D ( 'NONE', #162, #206, #191 ) ;
#130 = PERSON_AND_ORGANIZATION_ROLE ( 'creator' ) ;
#131 = ORIENTED_EDGE ( 'NONE', *, *, #108, .T. ) ;
#132 = CC_DESIGN_APPROVAL ( #56, ( #23 ) ) ;
#133 = AXIS2_PLACEMENT_3D ( 'NONE', #22, #138, #64 ) ;
#134 = DIRECTION ( 'NONE',  ( -3.491481338843133355E-15, 1.224646799147353207E-16, -1.000000000000000000 ) ) ;
#135 = FACE_OUTER_BOUND ( 'NONE', #45, .T. ) ;
#136 = CC_DESIGN_PERSON_AND_ORGANIZATION_ASSIGNMENT ( #55, #112, ( #23 ) ) ;
#137 = DIRECTION ( 'NONE',  ( 0.0000000000000000000, -1.000000000000000000, 0.0000000000000000000 ) ) ;
#138 = DIRECTION ( 'NONE',  ( 3.491481338843133355E-15, -1.224646799147353207E-16, 1.000000000000000000 ) ) ;
#139 = EDGE_CURVE ( 'NONE', #27, #27, #41, .T. ) ;
#140 = DIRECTION ( 'NONE',  ( -3.491481338843133355E-15, 1.224646799147353207E-16, -1.000000000000000000 ) ) ;
#141 =( LENGTH_UNIT ( ) NAMED_UNIT ( * ) SI_UNIT ( .MILLI., .METRE. ) );
#142 = AXIS2_PLACEMENT_3D ( 'NONE', #212, #101, #62 ) ;
#143 = VERTEX_POINT ( 'NONE', #94 ) ;
#144 =( NAMED_UNIT ( * ) PLANE_ANGLE_UNIT ( ) SI_UNIT ( $, .RADIAN. ) );
#145 = PERSON_AND_ORGANIZATION ( #194, #2 ) ;
#146 = AXIS2_PLACEMENT_3D ( 'NONE', #40, #37, #92 ) ;
#147 = APPROVAL_STATUS ( 'not_yet_approved' ) ;
#148 = EDGE_CURVE ( 'NONE', #143, #143, #185, .T. ) ;
#149 = EDGE_LOOP ( 'NONE', ( #17 ) ) ;
#150 = SHAPE_DEFINITION_REPRESENTATION ( #79, #53 ) ;
#151 = FACE_OUTER_BOUND ( 'NONE', #95, .T. ) ;
#152 =( GEOMETRIC_REPRESENTATION_CONTEXT ( 3 ) GLOBAL_UNCERTAINTY_ASSIGNED_CONTEXT ( ( #60 ) ) GLOBAL_UNIT_ASSIGNED_CONTEXT ( ( #141, #144, #128 ) ) REPRESENTATION_CONTEXT ( 'NONE', 'WORKASPACE' ) );
#153 = CC_DESIGN_PERSON_AND_ORGANIZATION_ASSIGNMENT ( #145, #68, ( #69 ) ) ;
#154 = ORIENTED_EDGE ( 'NONE', *, *, #139, .T. ) ;
#155 = EDGE_LOOP ( 'NONE', ( #14 ) ) ;
#156 = CIRCLE ( 'NONE', #107, 0.8000000000000009326 ) ;
#157 = CARTESIAN_POINT ( 'NONE',  ( 1.675911042644703695E-14, 1.124819836996386911E-32, 4.799999999999999822 ) ) ;
#158 = DIRECTION ( 'NONE',  ( 3.491481338843133355E-15, -1.224646799147353207E-16, 1.000000000000000000 ) ) ;
#159 = CARTESIAN_POINT ( 'NONE',  ( 1.326762908760390423E-13, -4.653657836759941941E-15, 38.00000000000000000 ) ) ;
#160 = CLOSED_SHELL ( 'NONE', ( #122, #16, #209, #46, #61 ) ) ;
#161 = PLANE ( 'NONE',  #133 ) ;
#162 = CARTESIAN_POINT ( 'NONE',  ( 1.675911042644703379E-14, 0.0000000000000000000, 4.799999999999998934 ) ) ;
#163 = DATE_AND_TIME ( #58, #76 ) ;
#164 = CALENDAR_DATE ( 2021, 1, 11 ) ;
#165 = DATE_AND_TIME ( #164, #8 ) ;
#166 = CC_DESIGN_PERSON_AND_ORGANIZATION_ASSIGNMENT ( #42, #184, ( #98 ) ) ;
#167 = AXIS2_PLACEMENT_3D ( 'NONE', #88, #51, #50 ) ;
#168 = ORIENTED_EDGE ( 'NONE', *, *, #84, .T. ) ;
#169 = APPROVAL_DATE_TIME ( #78, #56 ) ;
#170 = DIRECTION ( 'NONE',  ( -4.285855558155654155E-31, -1.000000000000000000, -1.227517819005651059E-16 ) ) ;
#171 = ADVANCED_FACE ( 'NONE', ( #83, #52 ), #67, .T. ) ;
#172 = APPROVAL_PERSON_ORGANIZATION ( #180, #66, #113 ) ;
#173 = CARTESIAN_POINT ( 'NONE',  ( 1.326762908760390423E-13, -4.653657836759941941E-15, 38.00000000000000000 ) ) ;
#174 = PLANE ( 'NONE',  #198 ) ;
#175 = CARTESIAN_POINT ( 'NONE',  ( 1.675911042644703379E-14, -5.892085531227123306E-16, 4.799999999999998934 ) ) ;
#176 = VERTEX_POINT ( 'NONE', #217 ) ;
#177 = AXIS2_PLACEMENT_3D ( 'NONE', #157, #104, #105 ) ;
#178 = CARTESIAN_POINT ( 'NONE',  ( 1.675911042644703379E-14, -0.8000000000000014877, 4.799999999999998934 ) ) ;
#179 = PERSON_AND_ORGANIZATION ( #194, #2 ) ;
#180 = PERSON_AND_ORGANIZATION ( #194, #2 ) ;
#181 = APPROVAL ( #216, 'UNSPECIFIED' ) ;
#182 = LOCAL_TIME ( 11, 35, 30.00000000000000000, #197 ) ;
#183 = MECHANICAL_CONTEXT ( 'NONE', #103, 'mechanical' ) ;
#184 = PERSON_AND_ORGANIZATION_ROLE ( 'creator' ) ;
#185 = CIRCLE ( 'NONE', #13, 1.499999999999994893 ) ;
#186 = ADVANCED_FACE ( 'NONE', ( #33 ), #174, .F. ) ;
#187 = EDGE_LOOP ( 'NONE', ( #100 ) ) ;
#188 = APPLICATION_CONTEXT ( 'configuration controlled 3d designs of mechanical parts and assemblies' ) ;
#189 = AXIS2_PLACEMENT_3D ( 'NONE', #36, #34, #21 ) ;
#190 = CALENDAR_DATE ( 2021, 1, 11 ) ;
#191 = DIRECTION ( 'NONE',  ( -4.349082449591986113E-31, -1.000000000000000000, -1.227517819005651059E-16 ) ) ;
#192 = DIRECTION ( 'NONE',  ( 0.0000000000000000000, 1.000000000000000000, 0.0000000000000000000 ) ) ;
#193 = FACE_OUTER_BOUND ( 'NONE', #187, .T. ) ;
#194 = PERSON ( 'UNSPECIFIED', 'UNSPECIFIED', 'UNSPECIFIED', ('UNSPECIFIED'), ('UNSPECIFIED'), ('UNSPECIFIED') ) ;
#195 = CYLINDRICAL_SURFACE ( 'NONE', #91, 1.499999999999994893 ) ;
#196 = FACE_OUTER_BOUND ( 'NONE', #30, .T. ) ;
#197 = COORDINATED_UNIVERSAL_TIME_OFFSET ( 1, 0, .AHEAD. ) ;
#198 = AXIS2_PLACEMENT_3D ( 'NONE', #20, #158, #124 ) ;
#199 = APPLICATION_PROTOCOL_DEFINITION ( 'international standard', 'config_control_design', 1994, #188 ) ;
#200 = PERSON_AND_ORGANIZATION ( #194, #2 ) ;
#201 = ORIENTED_EDGE ( 'NONE', *, *, #148, .T. ) ;
#202 = TOROIDAL_SURFACE ( 'NONE', #129, 8.799999999999998934, 8.000000000000000000 ) ;
#203 = ORIENTED_EDGE ( 'NONE', *, *, #39, .T. ) ;
#204 = PRODUCT_RELATED_PRODUCT_CATEGORY ( 'detail', '', ( #69 ) ) ;
#205 = AXIS2_PLACEMENT_3D ( 'NONE', #173, #140, #48 ) ;
#206 = DIRECTION ( 'NONE',  ( 3.491481338843133355E-15, -1.227517819005651059E-16, 1.000000000000000000 ) ) ;
#207 = CARTESIAN_POINT ( 'NONE',  ( 0.0000000000000000000, 0.0000000000000000000, 0.0000000000000000000 ) ) ;
#208 = CARTESIAN_POINT ( 'NONE',  ( 1.316288464743861212E-13, -4.616918432785521081E-15, 37.69999999999999574 ) ) ;
#209 = ADVANCED_FACE ( 'NONE', ( #193 ), #4, .F. ) ;
#210 = CC_DESIGN_APPROVAL ( #181, ( #218 ) ) ;
#211 = DIRECTION ( 'NONE',  ( -3.491481338843133355E-15, 1.227517819005651059E-16, -1.000000000000000000 ) ) ;
#212 = CARTESIAN_POINT ( 'NONE',  ( 1.675911042644703379E-14, -5.892085531227123306E-16, 4.799999999999998934 ) ) ;
#213 = COORDINATED_UNIVERSAL_TIME_OFFSET ( 1, 0, .AHEAD. ) ;
#214 = CC_DESIGN_APPROVAL ( #66, ( #98 ) ) ;
#215 = SECURITY_CLASSIFICATION_LEVEL ( 'unclassified' ) ;
#216 = APPROVAL_STATUS ( 'not_yet_approved' ) ;
#217 = CARTESIAN_POINT ( 'NONE',  ( 1.326762908760390423E-13, 1.199999999999991518, 38.00000000000000000 ) ) ;
#218 = PRODUCT_DEFINITION_FORMATION_WITH_SPECIFIED_SOURCE ( 'ANY', '', #69, .NOT_KNOWN. ) ;
#219 = DATE_AND_TIME ( #7, #102 ) ;
#220 = EDGE_LOOP ( 'NONE', ( #168 ) ) ;
#221 = AXIS2_PLACEMENT_3D ( 'NONE', #208, #5, #192 ) ;
#222 = CC_DESIGN_DATE_AND_TIME_ASSIGNMENT ( #71, #110, ( #98 ) ) ;
#223 = EDGE_LOOP ( 'NONE', ( #203 ) ) ;
ENDSEC;
END-ISO-10303-21;
