ISO-10303-21;
HEADER;
FILE_DESCRIPTION (( 'STEP AP203' ),
    '1' );
FILE_NAME ('64921.step',
    '2021-11-01T09:46:03',
    ( '' ),
    ( '' ),
    'SwSTEP 2.0',
    'SolidWorks 2019',
    '' );
FILE_SCHEMA (( 'CONFIG_CONTROL_DESIGN' ));
ENDSEC;

DATA;
#1 = CARTESIAN_POINT ( 'NONE',  ( 3.396137943720632065E-14, -1.185948540219326543E-15, 9.726925663151067880 ) ) ;
#2 = APPROVAL ( #39, 'UNSPECIFIED' ) ;
#3 = AXIS2_PLACEMENT_3D ( 'NONE', #241, #34, #85 ) ;
#4 = DIRECTION ( 'NONE',  ( -4.256963957985736039E-31, -1.000000000000000000, -1.219242935835420493E-16 ) ) ;
#5 = FACE_OUTER_BOUND ( 'NONE', #157, .T. ) ;
#6 = CARTESIAN_POINT ( 'NONE',  ( 0.0000000000000000000, 0.0000000000000000000, 0.0000000000000000000 ) ) ;
#7 = ORIENTED_EDGE ( 'NONE', *, *, #49, .F. ) ;
#8 = CC_DESIGN_PERSON_AND_ORGANIZATION_ASSIGNMENT ( #22, #26, ( #156 ) ) ;
#9 = EDGE_LOOP ( 'NONE', ( #159 ) ) ;
#10 = CIRCLE ( 'NONE', #243, 0.1931483474218602669 ) ;
#11 = APPROVAL_STATUS ( 'not_yet_approved' ) ;
#12 = CALENDAR_DATE ( 2021, 1, 11 ) ;
#13 = APPLICATION_CONTEXT ( 'configuration controlled 3d designs of mechanical parts and assemblies' ) ;
#14 = AXIS2_PLACEMENT_3D ( 'NONE', #144, #147, #59 ) ;
#15 = PLANE ( 'NONE',  #187 ) ;
#16 = CARTESIAN_POINT ( 'NONE',  ( 2.094888803305877252E-15, -7.315457615012551802E-17, 0.5999999999999992006 ) ) ;
#17 = PRODUCT_DEFINITION_FORMATION_WITH_SPECIFIED_SOURCE ( 'ANY', '', #156, .NOT_KNOWN. ) ;
#18 = APPROVAL_PERSON_ORGANIZATION ( #102, #153, #92 ) ;
#19 = ADVANCED_FACE ( 'NONE', ( #180 ), #82, .F. ) ;
#20 = DIRECTION ( 'NONE',  ( -3.491481338843133355E-15, 1.224646799147353207E-16, -1.000000000000000000 ) ) ;
#21 = DIRECTION ( 'NONE',  ( 3.491481338843133355E-15, -1.219242935835426903E-16, 1.000000000000000000 ) ) ;
#22 = PERSON_AND_ORGANIZATION ( #230, #131 ) ;
#23 = CARTESIAN_POINT ( 'NONE',  ( 2.094888803305877252E-15, -7.315457615012551802E-17, 0.5999999999999992006 ) ) ;
#24 =( NAMED_UNIT ( * ) PLANE_ANGLE_UNIT ( ) SI_UNIT ( $, .RADIAN. ) );
#25 = AXIS2_PLACEMENT_3D ( 'NONE', #152, #149, #58 ) ;
#26 = PERSON_AND_ORGANIZATION_ROLE ( 'design_owner' ) ;
#27 = DATE_TIME_ROLE ( 'creation_date' ) ;
#28 = DATE_TIME_ROLE ( 'classification_date' ) ;
#29 = ORIENTED_EDGE ( 'NONE', *, *, #166, .F. ) ;
#30 = APPROVAL_PERSON_ORGANIZATION ( #78, #2, #99 ) ;
#31 = ADVANCED_FACE ( 'NONE', ( #183, #32 ), #140, .T. ) ;
#32 = FACE_OUTER_BOUND ( 'NONE', #124, .T. ) ;
#33 = DIRECTION ( 'NONE',  ( 3.491481338843133355E-15, -1.224646799147353207E-16, 1.000000000000000000 ) ) ;
#34 = DIRECTION ( 'NONE',  ( -3.491481338843133355E-15, 1.224646799147353207E-16, -1.000000000000000000 ) ) ;
#35 = CC_DESIGN_PERSON_AND_ORGANIZATION_ASSIGNMENT ( #178, #100, ( #17 ) ) ;
#36 = AXIS2_PLACEMENT_3D ( 'NONE', #129, #130, #217 ) ;
#37 = DESIGN_CONTEXT ( 'detailed design', #13, 'design' ) ;
#38 = EDGE_CURVE ( 'NONE', #225, #225, #200, .T. ) ;
#39 = APPROVAL_STATUS ( 'not_yet_approved' ) ;
#40 =( GEOMETRIC_REPRESENTATION_CONTEXT ( 3 ) GLOBAL_UNCERTAINTY_ASSIGNED_CONTEXT ( ( #89 ) ) GLOBAL_UNIT_ASSIGNED_CONTEXT ( ( #135, #24, #96 ) ) REPRESENTATION_CONTEXT ( 'NONE', 'WORKASPACE' ) );
#41 = APPLICATION_PROTOCOL_DEFINITION ( 'international standard', 'config_control_design', 1994, #138 ) ;
#42 = CARTESIAN_POINT ( 'NONE',  ( 1.316288464743861212E-13, 1.499999999999988232, 37.69999999999999574 ) ) ;
#43 = DIRECTION ( 'NONE',  ( 3.491481338843133355E-15, -1.219242935835426903E-16, 1.000000000000000000 ) ) ;
#44 = ORIENTED_EDGE ( 'NONE', *, *, #208, .F. ) ;
#45 = ADVANCED_FACE ( 'NONE', ( #115, #74 ), #148, .F. ) ;
#46 = ORIENTED_EDGE ( 'NONE', *, *, #227, .T. ) ;
#47 = APPROVAL_DATE_TIME ( #125, #185 ) ;
#48 = PERSON_AND_ORGANIZATION ( #230, #131 ) ;
#49 = EDGE_CURVE ( 'NONE', #93, #93, #122, .T. ) ;
#50 = DIRECTION ( 'NONE',  ( 0.0000000000000000000, -1.000000000000000000, 0.0000000000000000000 ) ) ;
#51 = EDGE_CURVE ( 'NONE', #55, #55, #195, .T. ) ;
#52 = DIRECTION ( 'NONE',  ( 3.491481338843133355E-15, -1.219242935835426903E-16, 1.000000000000000000 ) ) ;
#53 = PRODUCT_DEFINITION_SHAPE ( 'NONE', 'NONE',  #69 ) ;
#54 = MANIFOLD_SOLID_BREP ( 'Corps-Déplacer/Copier1[2]', #165 ) ;
#55 = VERTEX_POINT ( 'NONE', #42 ) ;
#56 = MANIFOLD_SOLID_BREP ( 'Corps-Déplacer/Copier1[1]', #61 ) ;
#57 = DIRECTION ( 'NONE',  ( 3.491481338843133355E-15, -1.224646799147353207E-16, 1.000000000000000000 ) ) ;
#58 = DIRECTION ( 'NONE',  ( 0.0000000000000000000, 1.000000000000000000, 0.0000000000000000000 ) ) ;
#59 = DIRECTION ( 'NONE',  ( -4.337434547086495813E-31, -1.000000000000000000, -1.219242935835426903E-16 ) ) ;
#60 = CONICAL_SURFACE ( 'NONE', #179, 1.199999999999992184, 0.7853981633974468357 ) ;
#61 = CLOSED_SHELL ( 'NONE', ( #116, #108, #95, #31, #45, #83 ) ) ;
#62 = VERTEX_POINT ( 'NONE', #133 ) ;
#63 = CARTESIAN_POINT ( 'NONE',  ( 0.0000000000000000000, 0.0000000000000000000, 0.0000000000000000000 ) ) ;
#64 = ADVANCED_FACE ( 'NONE', ( #5, #226 ), #170, .T. ) ;
#65 = EDGE_LOOP ( 'NONE', ( #67 ) ) ;
#66 = CALENDAR_DATE ( 2021, 1, 11 ) ;
#67 = ORIENTED_EDGE ( 'NONE', *, *, #51, .T. ) ;
#68 = ORIENTED_EDGE ( 'NONE', *, *, #38, .F. ) ;
#69 = PRODUCT_DEFINITION ( 'UNKNOWN', '', #17, #37 ) ;
#70 = CARTESIAN_POINT ( 'NONE',  ( 2.094888803305878435E-15, -1.301042606982608279E-16, 0.5999999999999996447 ) ) ;
#71 = DIRECTION ( 'NONE',  ( 3.491481338843133355E-15, -1.219242935835426903E-16, 1.000000000000000000 ) ) ;
#72 = DIRECTION ( 'NONE',  ( 0.0000000000000000000, -1.000000000000000000, 0.0000000000000000000 ) ) ;
#73 = AXIS2_PLACEMENT_3D ( 'NONE', #23, #168, #76 ) ;
#74 = FACE_OUTER_BOUND ( 'NONE', #176, .T. ) ;
#75 = PERSON_AND_ORGANIZATION ( #230, #131 ) ;
#76 = DIRECTION ( 'NONE',  ( 0.0000000000000000000, -1.000000000000000000, 0.0000000000000000000 ) ) ;
#77 = ADVANCED_FACE ( 'NONE', ( #79 ), #15, .T. ) ;
#78 = PERSON_AND_ORGANIZATION ( #230, #131 ) ;
#79 = FACE_OUTER_BOUND ( 'NONE', #158, .T. ) ;
#80 = ORIENTED_EDGE ( 'NONE', *, *, #208, .T. ) ;
#81 = AXIS2_PLACEMENT_3D ( 'NONE', #172, #151, #193 ) ;
#82 = PLANE ( 'NONE',  #109 ) ;
#83 = ADVANCED_FACE ( 'NONE', ( #224 ), #189, .F. ) ;
#84 = FACE_OUTER_BOUND ( 'NONE', #196, .T. ) ;
#85 = DIRECTION ( 'NONE',  ( 4.275831445896958607E-31, 1.000000000000000000, 1.224646799147353454E-16 ) ) ;
#86 = LOCAL_TIME ( 10, 46, 3.000000000000000000, #223 ) ;
#87 = LOCAL_TIME ( 10, 46, 3.000000000000000000, #106 ) ;
#88 = FACE_OUTER_BOUND ( 'NONE', #65, .T. ) ;
#89 = UNCERTAINTY_MEASURE_WITH_UNIT (LENGTH_MEASURE( 1.000000000000000082E-05 ), #135, 'distance_accuracy_value', 'NONE');
#90 = DATE_AND_TIME ( #169, #163 ) ;
#91 = AXIS2_PLACEMENT_3D ( 'NONE', #120, #21, #4 ) ;
#92 = APPROVAL_ROLE ( '' ) ;
#93 = VERTEX_POINT ( 'NONE', #229 ) ;
#94 = MECHANICAL_CONTEXT ( 'NONE', #138, 'mechanical' ) ;
#95 = ADVANCED_FACE ( 'NONE', ( #84 ), #182, .F. ) ;
#96 =( NAMED_UNIT ( * ) SI_UNIT ( $, .STERADIAN. ) SOLID_ANGLE_UNIT ( ) );
#97 = LOCAL_TIME ( 10, 46, 3.000000000000000000, #218 ) ;
#98 = CC_DESIGN_APPROVAL ( #153, ( #233 ) ) ;
#99 = APPROVAL_ROLE ( '' ) ;
#100 = PERSON_AND_ORGANIZATION_ROLE ( 'design_supplier' ) ;
#101 = EDGE_LOOP ( 'NONE', ( #44 ) ) ;
#102 = PERSON_AND_ORGANIZATION ( #230, #131 ) ;
#103 = ORIENTED_EDGE ( 'NONE', *, *, #49, .T. ) ;
#104 = AXIS2_PLACEMENT_3D ( 'NONE', #206, #33, #236 ) ;
#105 = APPROVAL_STATUS ( 'not_yet_approved' ) ;
#106 = COORDINATED_UNIVERSAL_TIME_OFFSET ( 1, 0, .AHEAD. ) ;
#107 = DATE_AND_TIME ( #113, #86 ) ;
#108 = ADVANCED_FACE ( 'NONE', ( #142, #210 ), #60, .T. ) ;
#109 = AXIS2_PLACEMENT_3D ( 'NONE', #242, #239, #127 ) ;
#110 = CC_DESIGN_DATE_AND_TIME_ASSIGNMENT ( #181, #28, ( #233 ) ) ;
#111 = CIRCLE ( 'NONE', #238, 0.1250000000000001943 ) ;
#112 = DIRECTION ( 'NONE',  ( -4.275831445896958607E-31, -1.000000000000000000, -1.224646799147353207E-16 ) ) ;
#113 = CALENDAR_DATE ( 2021, 1, 11 ) ;
#114 = AXIS2_PLACEMENT_3D ( 'NONE', #63, #43, #119 ) ;
#115 = FACE_OUTER_BOUND ( 'NONE', #237, .T. ) ;
#116 = ADVANCED_FACE ( 'NONE', ( #88, #186 ), #128, .T. ) ;
#117 = APPLICATION_PROTOCOL_DEFINITION ( 'international standard', 'config_control_design', 1994, #13 ) ;
#118 = CARTESIAN_POINT ( 'NONE',  ( 2.094888803305877252E-15, -0.1250000000000002776, 0.5999999999999992006 ) ) ;
#119 = DIRECTION ( 'NONE',  ( -4.256963957985708889E-31, -1.000000000000000000, -1.219242935835426903E-16 ) ) ;
#120 = CARTESIAN_POINT ( 'NONE',  ( -4.542845604707888543E-30, 1.586384652986960403E-31, -1.301122693731227119E-15 ) ) ;
#121 = VERTEX_POINT ( 'NONE', #154 ) ;
#122 = CIRCLE ( 'NONE', #73, 0.1250000000000001943 ) ;
#123 = EDGE_LOOP ( 'NONE', ( #46 ) ) ;
#124 = EDGE_LOOP ( 'NONE', ( #80 ) ) ;
#125 = DATE_AND_TIME ( #12, #97 ) ;
#126 = SHAPE_DEFINITION_REPRESENTATION ( #53, #141 ) ;
#127 = DIRECTION ( 'NONE',  ( -4.275831445896958607E-31, -1.000000000000000000, -1.224646799147353207E-16 ) ) ;
#128 = CYLINDRICAL_SURFACE ( 'NONE', #3, 1.499999999999990452 ) ;
#129 = CARTESIAN_POINT ( 'NONE',  ( 2.093099368696478654E-14, -7.309208818885887125E-16, 5.994874855582088102 ) ) ;
#130 = DIRECTION ( 'NONE',  ( -3.491481338843133355E-15, 1.219242935835426903E-16, -1.000000000000000000 ) ) ;
#131 = ORGANIZATION ( 'UNSPECIFIED', 'UNSPECIFIED', '' ) ;
#132 = DIRECTION ( 'NONE',  ( -3.491481338843133355E-15, 1.224646799147353207E-16, -1.000000000000000000 ) ) ;
#133 = CARTESIAN_POINT ( 'NONE',  ( 3.902212535531134027E-15, -0.1931483474218604057, 1.117638090205028245 ) ) ;
#134 = COORDINATED_UNIVERSAL_TIME_OFFSET ( 1, 0, .AHEAD. ) ;
#135 =( LENGTH_UNIT ( ) NAMED_UNIT ( * ) SI_UNIT ( .MILLI., .METRE. ) );
#136 = CIRCLE ( 'NONE', #36, 1.499999999999990452 ) ;
#137 = EDGE_LOOP ( 'NONE', ( #199 ) ) ;
#138 = APPLICATION_CONTEXT ( 'configuration controlled 3d designs of mechanical parts and assemblies' ) ;
#139 = ORIENTED_EDGE ( 'NONE', *, *, #38, .T. ) ;
#140 = CONICAL_SURFACE ( 'NONE', #228, 2.499999999999992006, 0.2617993877991429130 ) ;
#141 = ADVANCED_BREP_SHAPE_REPRESENTATION ( '64921', ( #56, #54, #171 ), #40 ) ;
#142 = FACE_OUTER_BOUND ( 'NONE', #9, .T. ) ;
#143 = CC_DESIGN_DATE_AND_TIME_ASSIGNMENT ( #107, #27, ( #69 ) ) ;
#144 = CARTESIAN_POINT ( 'NONE',  ( 2.094888803305877252E-15, 0.0000000000000000000, 0.5999999999999992006 ) ) ;
#145 = PERSON_AND_ORGANIZATION_ROLE ( 'creator' ) ;
#146 = CC_DESIGN_PERSON_AND_ORGANIZATION_ASSIGNMENT ( #75, #145, ( #69 ) ) ;
#147 = DIRECTION ( 'NONE',  ( 3.491481338843133355E-15, -1.219242935835426903E-16, 1.000000000000000000 ) ) ;
#148 = TOROIDAL_SURFACE ( 'NONE', #14, 2.125000000000000000, 2.000000000000000000 ) ;
#149 = DIRECTION ( 'NONE',  ( -3.491481338843133355E-15, 1.224646799147353207E-16, -1.000000000000000000 ) ) ;
#150 = LOCAL_TIME ( 10, 46, 3.000000000000000000, #134 ) ;
#151 = DIRECTION ( 'NONE',  ( -3.491481338843133355E-15, 1.224646799147353207E-16, -1.000000000000000000 ) ) ;
#152 = CARTESIAN_POINT ( 'NONE',  ( 1.326762908760390423E-13, -4.653657836759941941E-15, 38.00000000000000000 ) ) ;
#153 = APPROVAL ( #11, 'UNSPECIFIED' ) ;
#154 = CARTESIAN_POINT ( 'NONE',  ( 1.326762908760390423E-13, 1.199999999999987521, 38.00000000000000000 ) ) ;
#155 = EDGE_LOOP ( 'NONE', ( #235 ) ) ;
#156 = PRODUCT ( '64921', '64921', '', ( #94 ) ) ;
#157 = EDGE_LOOP ( 'NONE', ( #139 ) ) ;
#158 = EDGE_LOOP ( 'NONE', ( #174 ) ) ;
#159 = ORIENTED_EDGE ( 'NONE', *, *, #51, .F. ) ;
#160 = CC_DESIGN_APPROVAL ( #185, ( #17 ) ) ;
#161 = DATE_AND_TIME ( #191, #150 ) ;
#162 = CARTESIAN_POINT ( 'NONE',  ( 3.902212535531134027E-15, -1.362672346303078047E-16, 1.117638090205028245 ) ) ;
#163 = LOCAL_TIME ( 10, 46, 3.000000000000000000, #173 ) ;
#164 = APPROVAL_DATE_TIME ( #161, #153 ) ;
#165 = CLOSED_SHELL ( 'NONE', ( #77, #64, #19 ) ) ;
#166 = EDGE_CURVE ( 'NONE', #62, #62, #10, .T. ) ;
#167 = APPROVAL_DATE_TIME ( #90, #2 ) ;
#168 = DIRECTION ( 'NONE',  ( 3.491481338843133355E-15, -1.219242935835426903E-16, 1.000000000000000000 ) ) ;
#169 = CALENDAR_DATE ( 2021, 1, 11 ) ;
#170 = CYLINDRICAL_SURFACE ( 'NONE', #114, 0.1250000000000001665 ) ;
#171 = AXIS2_PLACEMENT_3D ( 'NONE', #6, #190, #215 ) ;
#172 = CARTESIAN_POINT ( 'NONE',  ( 1.316288464743861212E-13, -4.616918432785521081E-15, 37.69999999999999574 ) ) ;
#173 = COORDINATED_UNIVERSAL_TIME_OFFSET ( 1, 0, .AHEAD. ) ;
#174 = ORIENTED_EDGE ( 'NONE', *, *, #204, .T. ) ;
#175 = PERSON_AND_ORGANIZATION ( #230, #131 ) ;
#176 = EDGE_LOOP ( 'NONE', ( #29 ) ) ;
#177 = PERSON_AND_ORGANIZATION ( #230, #131 ) ;
#178 = PERSON_AND_ORGANIZATION ( #230, #131 ) ;
#179 = AXIS2_PLACEMENT_3D ( 'NONE', #184, #20, #222 ) ;
#180 = FACE_OUTER_BOUND ( 'NONE', #220, .T. ) ;
#181 = DATE_AND_TIME ( #66, #87 ) ;
#182 = PLANE ( 'NONE',  #219 ) ;
#183 = FACE_BOUND ( 'NONE', #137, .T. ) ;
#184 = CARTESIAN_POINT ( 'NONE',  ( 1.326762908760390423E-13, -4.653657836759941941E-15, 38.00000000000000000 ) ) ;
#185 = APPROVAL ( #105, 'UNSPECIFIED' ) ;
#186 = FACE_OUTER_BOUND ( 'NONE', #101, .T. ) ;
#187 = AXIS2_PLACEMENT_3D ( 'NONE', #70, #57, #112 ) ;
#188 = DIRECTION ( 'NONE',  ( 0.0000000000000000000, -1.000000000000000000, 0.0000000000000000000 ) ) ;
#189 = PLANE ( 'NONE',  #104 ) ;
#190 = DIRECTION ( 'NONE',  ( 0.0000000000000000000, 0.0000000000000000000, 1.000000000000000000 ) ) ;
#191 = CALENDAR_DATE ( 2021, 1, 11 ) ;
#192 = VERTEX_POINT ( 'NONE', #118 ) ;
#193 = DIRECTION ( 'NONE',  ( 0.0000000000000000000, 1.000000000000000000, 0.0000000000000000000 ) ) ;
#194 = CARTESIAN_POINT ( 'NONE',  ( 2.093099368696478654E-14, -1.499999999999991118, 5.994874855582088102 ) ) ;
#195 = CIRCLE ( 'NONE', #81, 1.499999999999992895 ) ;
#196 = EDGE_LOOP ( 'NONE', ( #231 ) ) ;
#197 = CC_DESIGN_PERSON_AND_ORGANIZATION_ASSIGNMENT ( #175, #198, ( #233 ) ) ;
#198 = PERSON_AND_ORGANIZATION_ROLE ( 'classification_officer' ) ;
#199 = ORIENTED_EDGE ( 'NONE', *, *, #166, .T. ) ;
#200 = CIRCLE ( 'NONE', #91, 0.1250000000000001110 ) ;
#201 = CC_DESIGN_APPROVAL ( #2, ( #69 ) ) ;
#202 = EDGE_LOOP ( 'NONE', ( #7 ) ) ;
#203 = CC_DESIGN_SECURITY_CLASSIFICATION ( #233, ( #17 ) ) ;
#204 = EDGE_CURVE ( 'NONE', #192, #192, #111, .T. ) ;
#205 = PERSON_AND_ORGANIZATION_ROLE ( 'creator' ) ;
#206 = CARTESIAN_POINT ( 'NONE',  ( 2.094888803305878435E-15, -1.301042606982608279E-16, 0.5999999999999996447 ) ) ;
#207 = CARTESIAN_POINT ( 'NONE',  ( 1.326762908760390423E-13, 8.998558695971017012E-33, 38.00000000000000000 ) ) ;
#208 = EDGE_CURVE ( 'NONE', #213, #213, #136, .T. ) ;
#209 = DIRECTION ( 'NONE',  ( 3.491481338843133355E-15, -1.219242935835426903E-16, 1.000000000000000000 ) ) ;
#210 = FACE_BOUND ( 'NONE', #123, .T. ) ;
#211 = APPROVAL_PERSON_ORGANIZATION ( #177, #185, #216 ) ;
#212 = DIRECTION ( 'NONE',  ( 4.275831445896958607E-31, 1.000000000000000000, 1.224646799147353207E-16 ) ) ;
#213 = VERTEX_POINT ( 'NONE', #194 ) ;
#214 = CARTESIAN_POINT ( 'NONE',  ( -4.596057654182710484E-30, -0.1250000000000001110, -1.316363230429169881E-15 ) ) ;
#215 = DIRECTION ( 'NONE',  ( 1.000000000000000000, 0.0000000000000000000, 0.0000000000000000000 ) ) ;
#216 = APPROVAL_ROLE ( '' ) ;
#217 = DIRECTION ( 'NONE',  ( 0.0000000000000000000, -1.000000000000000000, 0.0000000000000000000 ) ) ;
#218 = COORDINATED_UNIVERSAL_TIME_OFFSET ( 1, 0, .AHEAD. ) ;
#219 = AXIS2_PLACEMENT_3D ( 'NONE', #207, #132, #212 ) ;
#220 = EDGE_LOOP ( 'NONE', ( #68 ) ) ;
#221 = PRODUCT_RELATED_PRODUCT_CATEGORY ( 'detail', '', ( #156 ) ) ;
#222 = DIRECTION ( 'NONE',  ( 0.0000000000000000000, 1.000000000000000000, 0.0000000000000000000 ) ) ;
#223 = COORDINATED_UNIVERSAL_TIME_OFFSET ( 1, 0, .AHEAD. ) ;
#224 = FACE_OUTER_BOUND ( 'NONE', #202, .T. ) ;
#225 = VERTEX_POINT ( 'NONE', #214 ) ;
#226 = FACE_OUTER_BOUND ( 'NONE', #155, .T. ) ;
#227 = EDGE_CURVE ( 'NONE', #121, #121, #232, .T. ) ;
#228 = AXIS2_PLACEMENT_3D ( 'NONE', #1, #209, #188 ) ;
#229 = CARTESIAN_POINT ( 'NONE',  ( 2.094888803305877252E-15, -0.1250000000000002776, 0.5999999999999992006 ) ) ;
#230 = PERSON ( 'UNSPECIFIED', 'UNSPECIFIED', 'UNSPECIFIED', ('UNSPECIFIED'), ('UNSPECIFIED'), ('UNSPECIFIED') ) ;
#231 = ORIENTED_EDGE ( 'NONE', *, *, #227, .F. ) ;
#232 = CIRCLE ( 'NONE', #25, 1.199999999999992184 ) ;
#233 = SECURITY_CLASSIFICATION ( '', '', #234 ) ;
#234 = SECURITY_CLASSIFICATION_LEVEL ( 'unclassified' ) ;
#235 = ORIENTED_EDGE ( 'NONE', *, *, #204, .F. ) ;
#236 = DIRECTION ( 'NONE',  ( -4.275831445896958607E-31, -1.000000000000000000, -1.224646799147353207E-16 ) ) ;
#237 = EDGE_LOOP ( 'NONE', ( #103 ) ) ;
#238 = AXIS2_PLACEMENT_3D ( 'NONE', #16, #52, #72 ) ;
#239 = DIRECTION ( 'NONE',  ( 3.491481338843133355E-15, -1.224646799147353207E-16, 1.000000000000000000 ) ) ;
#240 = CC_DESIGN_PERSON_AND_ORGANIZATION_ASSIGNMENT ( #48, #205, ( #17 ) ) ;
#241 = CARTESIAN_POINT ( 'NONE',  ( 0.0000000000000000000, 0.0000000000000000000, 0.0000000000000000000 ) ) ;
#242 = CARTESIAN_POINT ( 'NONE',  ( -1.924129419174264339E-30, 6.748937501461144163E-32, -5.510925685805913103E-16 ) ) ;
#243 = AXIS2_PLACEMENT_3D ( 'NONE', #162, #71, #50 ) ;
ENDSEC;
END-ISO-10303-21;
