ISO-10303-21;
HEADER;
FILE_DESCRIPTION (( 'STEP AP203' ),
    '1' );
FILE_NAME ('64920.step',
    '2021-11-01T09:46:02',
    ( '' ),
    ( '' ),
    'SwSTEP 2.0',
    'SolidWorks 2019',
    '' );
FILE_SCHEMA (( 'CONFIG_CONTROL_DESIGN' ));
ENDSEC;

DATA;
#1 = UNCERTAINTY_MEASURE_WITH_UNIT (LENGTH_MEASURE( 1.000000000000000082E-05 ), #117, 'distance_accuracy_value', 'NONE');
#2 = ADVANCED_FACE ( 'NONE', ( #154, #61 ), #70, .T. ) ;
#3 = ORIENTED_EDGE ( 'NONE', *, *, #229, .T. ) ;
#4 = ORIENTED_EDGE ( 'NONE', *, *, #204, .T. ) ;
#5 = CARTESIAN_POINT ( 'NONE',  ( 1.326762908760390423E-13, -4.653657836759941941E-15, 38.00000000000000000 ) ) ;
#6 = EDGE_LOOP ( 'NONE', ( #213 ) ) ;
#7 = CARTESIAN_POINT ( 'NONE',  ( 1.326762908760390423E-13, 1.199999999999987521, 38.00000000000000000 ) ) ;
#8 = ORIENTED_EDGE ( 'NONE', *, *, #229, .F. ) ;
#9 = PLANE ( 'NONE',  #76 ) ;
#10 = ADVANCED_FACE ( 'NONE', ( #108, #119 ), #240, .T. ) ;
#11 = PLANE ( 'NONE',  #148 ) ;
#12 = CIRCLE ( 'NONE', #141, 1.499999999999990452 ) ;
#13 = APPLICATION_PROTOCOL_DEFINITION ( 'international standard', 'config_control_design', 1994, #230 ) ;
#14 = CARTESIAN_POINT ( 'NONE',  ( 3.356545432306545072E-14, -1.172122635060800194E-15, 9.613528203529513760 ) ) ;
#15 = PERSON_AND_ORGANIZATION ( #20, #54 ) ;
#16 = ADVANCED_BREP_SHAPE_REPRESENTATION ( '64920', ( #18, #95, #209 ), #125 ) ;
#17 = PERSON_AND_ORGANIZATION_ROLE ( 'creator' ) ;
#18 = MANIFOLD_SOLID_BREP ( 'Corps-Déplacer/Copier1[1]', #52 ) ;
#19 = APPROVAL ( #145, 'UNSPECIFIED' ) ;
#20 = PERSON ( 'UNSPECIFIED', 'UNSPECIFIED', 'UNSPECIFIED', ('UNSPECIFIED'), ('UNSPECIFIED'), ('UNSPECIFIED') ) ;
#21 = LOCAL_TIME ( 10, 46, 2.000000000000000000, #165 ) ;
#22 = LOCAL_TIME ( 10, 46, 2.000000000000000000, #111 ) ;
#23 = ORIENTED_EDGE ( 'NONE', *, *, #96, .F. ) ;
#24 = ORIENTED_EDGE ( 'NONE', *, *, #35, .F. ) ;
#25 = DIRECTION ( 'NONE',  ( -4.275831445896958607E-31, -1.000000000000000000, -1.224646799147353207E-16 ) ) ;
#26 = CIRCLE ( 'NONE', #31, 1.499999999999992895 ) ;
#27 = CARTESIAN_POINT ( 'NONE',  ( 2.053506857282391661E-14, -1.499999999999991118, 5.881477395960536647 ) ) ;
#28 = CARTESIAN_POINT ( 'NONE',  ( 1.316288464743861212E-13, -4.616918432785521081E-15, 37.69999999999999574 ) ) ;
#29 = PRODUCT_DEFINITION ( 'UNKNOWN', '', #115, #184 ) ;
#30 = DIRECTION ( 'NONE',  ( -4.330276120448695765E-31, -1.000000000000000000, -1.219242935835426903E-16 ) ) ;
#31 = AXIS2_PLACEMENT_3D ( 'NONE', #28, #219, #44 ) ;
#32 = FACE_OUTER_BOUND ( 'NONE', #81, .T. ) ;
#33 = APPROVAL_ROLE ( '' ) ;
#34 = APPROVAL_ROLE ( '' ) ;
#35 = EDGE_CURVE ( 'NONE', #195, #195, #26, .T. ) ;
#36 = CALENDAR_DATE ( 2021, 1, 11 ) ;
#37 = VERTEX_POINT ( 'NONE', #7 ) ;
#38 = FACE_OUTER_BOUND ( 'NONE', #129, .T. ) ;
#39 = AXIS2_PLACEMENT_3D ( 'NONE', #14, #199, #136 ) ;
#40 = EDGE_LOOP ( 'NONE', ( #97 ) ) ;
#41 = PLANE ( 'NONE',  #205 ) ;
#42 = DIRECTION ( 'NONE',  ( -4.275831445896958607E-31, -1.000000000000000000, -1.224646799147353207E-16 ) ) ;
#43 = CARTESIAN_POINT ( 'NONE',  ( 1.047444401652936654E-15, -0.07500000000000006661, 0.2999999999999990452 ) ) ;
#44 = DIRECTION ( 'NONE',  ( 0.0000000000000000000, 1.000000000000000000, 0.0000000000000000000 ) ) ;
#45 = APPROVAL_DATE_TIME ( #218, #94 ) ;
#46 = CARTESIAN_POINT ( 'NONE',  ( -4.521560784917960467E-30, 1.578951886304037505E-31, -1.295026479052050014E-15 ) ) ;
#47 = CLOSED_SHELL ( 'NONE', ( #235, #62, #185 ) ) ;
#48 = APPLICATION_PROTOCOL_DEFINITION ( 'international standard', 'config_control_design', 1994, #150 ) ;
#49 = DATE_AND_TIME ( #124, #22 ) ;
#50 = DATE_AND_TIME ( #166, #194 ) ;
#51 = CC_DESIGN_DATE_AND_TIME_ASSIGNMENT ( #160, #206, ( #107 ) ) ;
#52 = CLOSED_SHELL ( 'NONE', ( #2, #10, #188, #105, #170, #130 ) ) ;
#53 = PERSON_AND_ORGANIZATION_ROLE ( 'creator' ) ;
#54 = ORGANIZATION ( 'UNSPECIFIED', 'UNSPECIFIED', '' ) ;
#55 = EDGE_LOOP ( 'NONE', ( #189 ) ) ;
#56 = EDGE_CURVE ( 'NONE', #116, #116, #167, .T. ) ;
#57 = APPROVAL_PERSON_ORGANIZATION ( #91, #19, #33 ) ;
#58 = VERTEX_POINT ( 'NONE', #43 ) ;
#59 = ORIENTED_EDGE ( 'NONE', *, *, #182, .F. ) ;
#60 = DIRECTION ( 'NONE',  ( 3.491481338843133355E-15, -1.224646799147353207E-16, 1.000000000000000000 ) ) ;
#61 = FACE_OUTER_BOUND ( 'NONE', #131, .T. ) ;
#62 = ADVANCED_FACE ( 'NONE', ( #103, #32 ), #175, .T. ) ;
#63 = DIRECTION ( 'NONE',  ( 3.491481338843133355E-15, -1.219242935835426903E-16, 1.000000000000000000 ) ) ;
#64 = DIRECTION ( 'NONE',  ( 0.0000000000000000000, -1.000000000000000000, 0.0000000000000000000 ) ) ;
#65 = AXIS2_PLACEMENT_3D ( 'NONE', #228, #106, #64 ) ;
#66 = DIRECTION ( 'NONE',  ( 0.0000000000000000000, -1.000000000000000000, 0.0000000000000000000 ) ) ;
#67 = DIRECTION ( 'NONE',  ( 0.0000000000000000000, 1.000000000000000000, 0.0000000000000000000 ) ) ;
#68 = FACE_BOUND ( 'NONE', #6, .T. ) ;
#69 = COORDINATED_UNIVERSAL_TIME_OFFSET ( 1, 0, .AHEAD. ) ;
#70 = CYLINDRICAL_SURFACE ( 'NONE', #223, 1.499999999999990452 ) ;
#71 = FACE_OUTER_BOUND ( 'NONE', #193, .T. ) ;
#72 = CIRCLE ( 'NONE', #99, 1.199999999999992184 ) ;
#73 = PERSON_AND_ORGANIZATION ( #20, #54 ) ;
#74 = PERSON_AND_ORGANIZATION ( #20, #54 ) ;
#75 = DATE_TIME_ROLE ( 'creation_date' ) ;
#76 = AXIS2_PLACEMENT_3D ( 'NONE', #143, #221, #42 ) ;
#77 = PRODUCT_DEFINITION_SHAPE ( 'NONE', 'NONE',  #29 ) ;
#78 = VERTEX_POINT ( 'NONE', #210 ) ;
#79 = EDGE_LOOP ( 'NONE', ( #127 ) ) ;
#80 = CC_DESIGN_APPROVAL ( #19, ( #29 ) ) ;
#81 = EDGE_LOOP ( 'NONE', ( #59 ) ) ;
#82 = EDGE_LOOP ( 'NONE', ( #4 ) ) ;
#83 =( NAMED_UNIT ( * ) PLANE_ANGLE_UNIT ( ) SI_UNIT ( $, .RADIAN. ) );
#84 = DIRECTION ( 'NONE',  ( 3.491481338843133355E-15, -1.219242935835426903E-16, 1.000000000000000000 ) ) ;
#85 = DIRECTION ( 'NONE',  ( -3.491481338843133355E-15, 1.224646799147353207E-16, -1.000000000000000000 ) ) ;
#86 = CARTESIAN_POINT ( 'NONE',  ( -1.924129419174264339E-30, 6.748937501461144163E-32, -5.510925685805913103E-16 ) ) ;
#87 = COORDINATED_UNIVERSAL_TIME_OFFSET ( 1, 0, .AHEAD. ) ;
#88 = DIRECTION ( 'NONE',  ( 3.491481338843133355E-15, -1.219242935835426903E-16, 1.000000000000000000 ) ) ;
#89 = PERSON_AND_ORGANIZATION ( #20, #54 ) ;
#90 = APPROVAL_ROLE ( '' ) ;
#91 = PERSON_AND_ORGANIZATION ( #20, #54 ) ;
#92 = MECHANICAL_CONTEXT ( 'NONE', #230, 'mechanical' ) ;
#93 = AXIS2_PLACEMENT_3D ( 'NONE', #46, #84, #203 ) ;
#94 = APPROVAL ( #237, 'UNSPECIFIED' ) ;
#95 = MANIFOLD_SOLID_BREP ( 'Corps-Déplacer/Copier1[2]', #47 ) ;
#96 = EDGE_CURVE ( 'NONE', #173, #173, #12, .T. ) ;
#97 = ORIENTED_EDGE ( 'NONE', *, *, #56, .T. ) ;
#98 = FACE_OUTER_BOUND ( 'NONE', #55, .T. ) ;
#99 = AXIS2_PLACEMENT_3D ( 'NONE', #5, #85, #67 ) ;
#100 = CARTESIAN_POINT ( 'NONE',  ( 1.047444401652939218E-15, 1.124819836996384448E-32, 0.2999999999999998224 ) ) ;
#101 = EDGE_LOOP ( 'NONE', ( #24 ) ) ;
#102 = VERTEX_POINT ( 'NONE', #190 ) ;
#103 = FACE_OUTER_BOUND ( 'NONE', #40, .T. ) ;
#104 = DIRECTION ( 'NONE',  ( 0.0000000000000000000, -1.000000000000000000, 0.0000000000000000000 ) ) ;
#105 = ADVANCED_FACE ( 'NONE', ( #68, #71 ), #225, .T. ) ;
#106 = DIRECTION ( 'NONE',  ( 3.491481338843133355E-15, -1.219242935835426903E-16, 1.000000000000000000 ) ) ;
#107 = SECURITY_CLASSIFICATION ( '', '', #123 ) ;
#108 = FACE_OUTER_BOUND ( 'NONE', #101, .T. ) ;
#109 = DIRECTION ( 'NONE',  ( -3.491481338843133355E-15, 1.224646799147353207E-16, -1.000000000000000000 ) ) ;
#110 = CALENDAR_DATE ( 2021, 1, 11 ) ;
#111 = COORDINATED_UNIVERSAL_TIME_OFFSET ( 1, 0, .AHEAD. ) ;
#112 = PERSON_AND_ORGANIZATION_ROLE ( 'design_supplier' ) ;
#113 = CC_DESIGN_PERSON_AND_ORGANIZATION_ASSIGNMENT ( #73, #112, ( #115 ) ) ;
#114 = CC_DESIGN_PERSON_AND_ORGANIZATION_ASSIGNMENT ( #222, #17, ( #29 ) ) ;
#115 = PRODUCT_DEFINITION_FORMATION_WITH_SPECIFIED_SOURCE ( 'ANY', '', #186, .NOT_KNOWN. ) ;
#116 = VERTEX_POINT ( 'NONE', #134 ) ;
#117 =( LENGTH_UNIT ( ) NAMED_UNIT ( * ) SI_UNIT ( .MILLI., .METRE. ) );
#118 = CARTESIAN_POINT ( 'NONE',  ( 1.047444401652936654E-15, -3.657728807506269122E-17, 0.2999999999999990452 ) ) ;
#119 = FACE_BOUND ( 'NONE', #82, .T. ) ;
#120 = SHAPE_DEFINITION_REPRESENTATION ( #77, #16 ) ;
#121 = DIRECTION ( 'NONE',  ( -3.491481338843133355E-15, 1.224646799147353207E-16, -1.000000000000000000 ) ) ;
#122 = CARTESIAN_POINT ( 'NONE',  ( 0.0000000000000000000, 0.0000000000000000000, 0.0000000000000000000 ) ) ;
#123 = SECURITY_CLASSIFICATION_LEVEL ( 'unclassified' ) ;
#124 = CALENDAR_DATE ( 2021, 1, 11 ) ;
#125 =( GEOMETRIC_REPRESENTATION_CONTEXT ( 3 ) GLOBAL_UNCERTAINTY_ASSIGNED_CONTEXT ( ( #1 ) ) GLOBAL_UNIT_ASSIGNED_CONTEXT ( ( #117, #83, #202 ) ) REPRESENTATION_CONTEXT ( 'NONE', 'WORKASPACE' ) );
#126 = PERSON_AND_ORGANIZATION ( #20, #54 ) ;
#127 = ORIENTED_EDGE ( 'NONE', *, *, #201, .F. ) ;
#128 = AXIS2_PLACEMENT_3D ( 'NONE', #231, #63, #192 ) ;
#129 = EDGE_LOOP ( 'NONE', ( #171 ) ) ;
#130 = ADVANCED_FACE ( 'NONE', ( #162 ), #9, .F. ) ;
#131 = EDGE_LOOP ( 'NONE', ( #23 ) ) ;
#132 = DIRECTION ( 'NONE',  ( 4.275831445896958607E-31, 1.000000000000000000, 1.224646799147353207E-16 ) ) ;
#133 = CIRCLE ( 'NONE', #65, 0.1431483474218601115 ) ;
#134 = CARTESIAN_POINT ( 'NONE',  ( -4.553488014602853632E-30, -0.07499999999999998335, -1.304170801070815672E-15 ) ) ;
#135 = CC_DESIGN_DATE_AND_TIME_ASSIGNMENT ( #180, #75, ( #29 ) ) ;
#136 = DIRECTION ( 'NONE',  ( 0.0000000000000000000, -1.000000000000000000, 0.0000000000000000000 ) ) ;
#137 = CARTESIAN_POINT ( 'NONE',  ( 1.316288464743861212E-13, 1.499999999999988232, 37.69999999999999574 ) ) ;
#138 = FACE_OUTER_BOUND ( 'NONE', #79, .T. ) ;
#139 = CALENDAR_DATE ( 2021, 1, 11 ) ;
#140 = DIRECTION ( 'NONE',  ( 0.0000000000000000000, 1.000000000000000000, 0.0000000000000000000 ) ) ;
#141 = AXIS2_PLACEMENT_3D ( 'NONE', #239, #178, #66 ) ;
#142 = LOCAL_TIME ( 10, 46, 2.000000000000000000, #69 ) ;
#143 = CARTESIAN_POINT ( 'NONE',  ( 1.047444401652939218E-15, 1.124819836996384448E-32, 0.2999999999999998224 ) ) ;
#144 = PERSON_AND_ORGANIZATION_ROLE ( 'classification_officer' ) ;
#145 = APPROVAL_STATUS ( 'not_yet_approved' ) ;
#146 = APPROVAL_STATUS ( 'not_yet_approved' ) ;
#147 = CC_DESIGN_PERSON_AND_ORGANIZATION_ASSIGNMENT ( #15, #242, ( #186 ) ) ;
#148 = AXIS2_PLACEMENT_3D ( 'NONE', #86, #159, #25 ) ;
#149 = CC_DESIGN_APPROVAL ( #94, ( #107 ) ) ;
#150 = APPLICATION_CONTEXT ( 'configuration controlled 3d designs of mechanical parts and assemblies' ) ;
#151 = ORIENTED_EDGE ( 'NONE', *, *, #56, .F. ) ;
#152 = APPROVAL_PERSON_ORGANIZATION ( #126, #212, #90 ) ;
#153 = CC_DESIGN_SECURITY_CLASSIFICATION ( #107, ( #115 ) ) ;
#154 = FACE_OUTER_BOUND ( 'NONE', #169, .T. ) ;
#155 = DIRECTION ( 'NONE',  ( -4.275831445896958607E-31, -1.000000000000000000, -1.224646799147353207E-16 ) ) ;
#156 = CC_DESIGN_PERSON_AND_ORGANIZATION_ASSIGNMENT ( #74, #144, ( #107 ) ) ;
#157 = FACE_OUTER_BOUND ( 'NONE', #196, .T. ) ;
#158 = CC_DESIGN_APPROVAL ( #212, ( #115 ) ) ;
#159 = DIRECTION ( 'NONE',  ( 3.491481338843133355E-15, -1.224646799147353207E-16, 1.000000000000000000 ) ) ;
#160 = DATE_AND_TIME ( #36, #187 ) ;
#161 = DIRECTION ( 'NONE',  ( 4.275831445896958607E-31, 1.000000000000000000, 1.224646799147353454E-16 ) ) ;
#162 = FACE_OUTER_BOUND ( 'NONE', #226, .T. ) ;
#163 = CIRCLE ( 'NONE', #128, 0.07500000000000002498 ) ;
#164 = APPROVAL_DATE_TIME ( #50, #19 ) ;
#165 = COORDINATED_UNIVERSAL_TIME_OFFSET ( 1, 0, .AHEAD. ) ;
#166 = CALENDAR_DATE ( 2021, 1, 11 ) ;
#167 = CIRCLE ( 'NONE', #93, 0.07499999999999998335 ) ;
#168 = AXIS2_PLACEMENT_3D ( 'NONE', #227, #198, #132 ) ;
#169 = EDGE_LOOP ( 'NONE', ( #211 ) ) ;
#170 = ADVANCED_FACE ( 'NONE', ( #157, #138 ), #233, .F. ) ;
#171 = ORIENTED_EDGE ( 'NONE', *, *, #182, .T. ) ;
#172 = AXIS2_PLACEMENT_3D ( 'NONE', #197, #232, #30 ) ;
#173 = VERTEX_POINT ( 'NONE', #27 ) ;
#174 = EDGE_LOOP ( 'NONE', ( #151 ) ) ;
#175 = CYLINDRICAL_SURFACE ( 'NONE', #181, 0.07500000000000001110 ) ;
#176 = DIRECTION ( 'NONE',  ( 3.491481338843133355E-15, -1.219242935835426903E-16, 1.000000000000000000 ) ) ;
#177 = CIRCLE ( 'NONE', #214, 0.07500000000000002498 ) ;
#178 = DIRECTION ( 'NONE',  ( -3.491481338843133355E-15, 1.219242935835426903E-16, -1.000000000000000000 ) ) ;
#179 = CARTESIAN_POINT ( 'NONE',  ( 1.326762908760390423E-13, -4.653657836759941941E-15, 38.00000000000000000 ) ) ;
#180 = DATE_AND_TIME ( #110, #21 ) ;
#181 = AXIS2_PLACEMENT_3D ( 'NONE', #236, #176, #216 ) ;
#182 = EDGE_CURVE ( 'NONE', #58, #58, #177, .T. ) ;
#183 = DIRECTION ( 'NONE',  ( 0.0000000000000000000, 0.0000000000000000000, 1.000000000000000000 ) ) ;
#184 = DESIGN_CONTEXT ( 'detailed design', #150, 'design' ) ;
#185 = ADVANCED_FACE ( 'NONE', ( #238 ), #11, .F. ) ;
#186 = PRODUCT ( '64920', '64920', '', ( #92 ) ) ;
#187 = LOCAL_TIME ( 10, 46, 2.000000000000000000, #207 ) ;
#188 = ADVANCED_FACE ( 'NONE', ( #98 ), #234, .F. ) ;
#189 = ORIENTED_EDGE ( 'NONE', *, *, #204, .F. ) ;
#190 = CARTESIAN_POINT ( 'NONE',  ( 1.047444401652936654E-15, -0.07500000000000006661, 0.2999999999999990452 ) ) ;
#191 = ORIENTED_EDGE ( 'NONE', *, *, #96, .T. ) ;
#192 = DIRECTION ( 'NONE',  ( 0.0000000000000000000, -1.000000000000000000, 0.0000000000000000000 ) ) ;
#193 = EDGE_LOOP ( 'NONE', ( #191 ) ) ;
#194 = LOCAL_TIME ( 10, 46, 2.000000000000000000, #87 ) ;
#195 = VERTEX_POINT ( 'NONE', #137 ) ;
#196 = EDGE_LOOP ( 'NONE', ( #3 ) ) ;
#197 = CARTESIAN_POINT ( 'NONE',  ( 1.047444401652938823E-15, 0.0000000000000000000, 0.2999999999999996558 ) ) ;
#198 = DIRECTION ( 'NONE',  ( -3.491481338843133355E-15, 1.224646799147353207E-16, -1.000000000000000000 ) ) ;
#199 = DIRECTION ( 'NONE',  ( 3.491481338843133355E-15, -1.219242935835426903E-16, 1.000000000000000000 ) ) ;
#200 = AXIS2_PLACEMENT_3D ( 'NONE', #179, #109, #140 ) ;
#201 = EDGE_CURVE ( 'NONE', #78, #78, #133, .T. ) ;
#202 =( NAMED_UNIT ( * ) SI_UNIT ( $, .STERADIAN. ) SOLID_ANGLE_UNIT ( ) );
#203 = DIRECTION ( 'NONE',  ( -4.256963957985741294E-31, -1.000000000000000000, -1.219242935835426903E-16 ) ) ;
#204 = EDGE_CURVE ( 'NONE', #37, #37, #72, .T. ) ;
#205 = AXIS2_PLACEMENT_3D ( 'NONE', #100, #60, #155 ) ;
#206 = DATE_TIME_ROLE ( 'classification_date' ) ;
#207 = COORDINATED_UNIVERSAL_TIME_OFFSET ( 1, 0, .AHEAD. ) ;
#208 = CC_DESIGN_PERSON_AND_ORGANIZATION_ASSIGNMENT ( #241, #53, ( #115 ) ) ;
#209 = AXIS2_PLACEMENT_3D ( 'NONE', #122, #183, #220 ) ;
#210 = CARTESIAN_POINT ( 'NONE',  ( 2.854768133878195599E-15, -0.1431483474218602225, 0.8176380902050285338 ) ) ;
#211 = ORIENTED_EDGE ( 'NONE', *, *, #35, .T. ) ;
#212 = APPROVAL ( #146, 'UNSPECIFIED' ) ;
#213 = ORIENTED_EDGE ( 'NONE', *, *, #201, .T. ) ;
#214 = AXIS2_PLACEMENT_3D ( 'NONE', #118, #88, #104 ) ;
#215 = CARTESIAN_POINT ( 'NONE',  ( 0.0000000000000000000, 0.0000000000000000000, 0.0000000000000000000 ) ) ;
#216 = DIRECTION ( 'NONE',  ( -4.256963957985708889E-31, -1.000000000000000000, -1.219242935835426656E-16 ) ) ;
#217 = PRODUCT_RELATED_PRODUCT_CATEGORY ( 'detail', '', ( #186 ) ) ;
#218 = DATE_AND_TIME ( #139, #142 ) ;
#219 = DIRECTION ( 'NONE',  ( -3.491481338843133355E-15, 1.224646799147353207E-16, -1.000000000000000000 ) ) ;
#220 = DIRECTION ( 'NONE',  ( 1.000000000000000000, 0.0000000000000000000, 0.0000000000000000000 ) ) ;
#221 = DIRECTION ( 'NONE',  ( 3.491481338843133355E-15, -1.224646799147353207E-16, 1.000000000000000000 ) ) ;
#222 = PERSON_AND_ORGANIZATION ( #20, #54 ) ;
#223 = AXIS2_PLACEMENT_3D ( 'NONE', #215, #121, #161 ) ;
#224 = APPROVAL_DATE_TIME ( #49, #212 ) ;
#225 = CONICAL_SURFACE ( 'NONE', #39, 2.499999999999992006, 0.2617993877991430240 ) ;
#226 = EDGE_LOOP ( 'NONE', ( #8 ) ) ;
#227 = CARTESIAN_POINT ( 'NONE',  ( 1.326762908760390423E-13, 8.998558695971017012E-33, 38.00000000000000000 ) ) ;
#228 = CARTESIAN_POINT ( 'NONE',  ( 2.854768133878195599E-15, -9.968994655524506421E-17, 0.8176380902050285338 ) ) ;
#229 = EDGE_CURVE ( 'NONE', #102, #102, #163, .T. ) ;
#230 = APPLICATION_CONTEXT ( 'configuration controlled 3d designs of mechanical parts and assemblies' ) ;
#231 = CARTESIAN_POINT ( 'NONE',  ( 1.047444401652936654E-15, -3.657728807506269122E-17, 0.2999999999999990452 ) ) ;
#232 = DIRECTION ( 'NONE',  ( 3.491481338843133355E-15, -1.219242935835426903E-16, 1.000000000000000000 ) ) ;
#233 = TOROIDAL_SURFACE ( 'NONE', #172, 2.075000000000000178, 2.000000000000000000 ) ;
#234 = PLANE ( 'NONE',  #168 ) ;
#235 = ADVANCED_FACE ( 'NONE', ( #38 ), #41, .T. ) ;
#236 = CARTESIAN_POINT ( 'NONE',  ( 0.0000000000000000000, 0.0000000000000000000, 0.0000000000000000000 ) ) ;
#237 = APPROVAL_STATUS ( 'not_yet_approved' ) ;
#238 = FACE_OUTER_BOUND ( 'NONE', #174, .T. ) ;
#239 = CARTESIAN_POINT ( 'NONE',  ( 2.053506857282391661E-14, -7.170949767300625603E-16, 5.881477395960536647 ) ) ;
#240 = CONICAL_SURFACE ( 'NONE', #200, 1.199999999999992184, 0.7853981633974468357 ) ;
#241 = PERSON_AND_ORGANIZATION ( #20, #54 ) ;
#242 = PERSON_AND_ORGANIZATION_ROLE ( 'design_owner' ) ;
#243 = APPROVAL_PERSON_ORGANIZATION ( #89, #94, #34 ) ;
ENDSEC;
END-ISO-10303-21;
