ISO-10303-21;
HEADER;
FILE_DESCRIPTION (( 'STEP AP203' ),
    '1' );
FILE_NAME ('649.step',
    '2021-12-06T13:00:05',
    ( '' ),
    ( '' ),
    'SwSTEP 2.0',
    'SolidWorks 2019',
    '' );
FILE_SCHEMA (( 'CONFIG_CONTROL_DESIGN' ));
ENDSEC;

DATA;
#1 = CARTESIAN_POINT ( 'NONE',  ( 0.0000000000000000000, 0.0000000000000000000, 0.0000000000000000000 ) ) ;
#2 = AXIS2_PLACEMENT_3D ( 'NONE', #120, #93, #81 ) ;
#3 = CYLINDRICAL_SURFACE ( 'NONE', #33, 20.00000000000000000 ) ;
#4 = APPROVAL_PERSON_ORGANIZATION ( #60, #61, #86 ) ;
#5 = APPROVAL_STATUS ( 'not_yet_approved' ) ;
#6 = CALENDAR_DATE ( 2021, 6, 12 ) ;
#7 = CIRCLE ( 'NONE', #115, 5.000000000000000000 ) ;
#8 = VERTEX_POINT ( 'NONE', #124 ) ;
#9 = PERSON_AND_ORGANIZATION ( #101, #37 ) ;
#10 = FACE_OUTER_BOUND ( 'NONE', #150, .T. ) ;
#11 = ORIENTED_EDGE ( 'NONE', *, *, #65, .F. ) ;
#12 = EDGE_LOOP ( 'NONE', ( #95 ) ) ;
#13 = MANIFOLD_SOLID_BREP ( 'Corps-Déplacer/Copier1', #75 ) ;
#14 = DIRECTION ( 'NONE',  ( -3.491481338843133355E-15, 1.224646799147353207E-16, -1.000000000000000000 ) ) ;
#15 = CYLINDRICAL_SURFACE ( 'NONE', #152, 5.000000000000000000 ) ;
#16 = DESIGN_CONTEXT ( 'detailed design', #89, 'design' ) ;
#17 = CARTESIAN_POINT ( 'NONE',  ( 0.0000000000000000000, 0.0000000000000000000, 0.0000000000000000000 ) ) ;
#18 = APPROVAL_DATE_TIME ( #166, #61 ) ;
#19 = DATE_TIME_ROLE ( 'creation_date' ) ;
#20 = PERSON_AND_ORGANIZATION_ROLE ( 'classification_officer' ) ;
#21 = CIRCLE ( 'NONE', #167, 20.00000000000000000 ) ;
#22 = EDGE_LOOP ( 'NONE', ( #11 ) ) ;
#23 = AXIS2_PLACEMENT_3D ( 'NONE', #109, #142, #156 ) ;
#24 = CARTESIAN_POINT ( 'NONE',  ( -2.137915722948479128E-30, 7.498798913309288039E-32, -6.123233995736766282E-16 ) ) ;
#25 = ADVANCED_FACE ( 'NONE', ( #71, #135 ), #122, .T. ) ;
#26 = CC_DESIGN_APPROVAL ( #151, ( #140 ) ) ;
#27 = FACE_BOUND ( 'NONE', #104, .T. ) ;
#28 = CC_DESIGN_PERSON_AND_ORGANIZATION_ASSIGNMENT ( #9, #20, ( #140 ) ) ;
#29 = PERSON_AND_ORGANIZATION ( #101, #37 ) ;
#30 = CC_DESIGN_DATE_AND_TIME_ASSIGNMENT ( #32, #19, ( #54 ) ) ;
#31 = COORDINATED_UNIVERSAL_TIME_OFFSET ( 1, 0, .AHEAD. ) ;
#32 = DATE_AND_TIME ( #165, #162 ) ;
#33 = AXIS2_PLACEMENT_3D ( 'NONE', #1, #160, #38 ) ;
#34 = CALENDAR_DATE ( 2021, 6, 12 ) ;
#35 = COORDINATED_UNIVERSAL_TIME_OFFSET ( 1, 0, .AHEAD. ) ;
#36 = EDGE_LOOP ( 'NONE', ( #39 ) ) ;
#37 = ORGANIZATION ( 'UNSPECIFIED', 'UNSPECIFIED', '' ) ;
#38 = DIRECTION ( 'NONE',  ( 4.275831445896958607E-31, 1.000000000000000000, 1.224646799147353207E-16 ) ) ;
#39 = ORIENTED_EDGE ( 'NONE', *, *, #65, .T. ) ;
#40 = ORIENTED_EDGE ( 'NONE', *, *, #126, .T. ) ;
#41 = APPROVAL_PERSON_ORGANIZATION ( #62, #151, #157 ) ;
#42 =( NAMED_UNIT ( * ) SI_UNIT ( $, .STERADIAN. ) SOLID_ANGLE_UNIT ( ) );
#43 = CARTESIAN_POINT ( 'NONE',  ( 0.0000000000000000000, 5.000000000000000000, 0.0000000000000000000 ) ) ;
#44 = EDGE_CURVE ( 'NONE', #163, #163, #46, .T. ) ;
#45 = VERTEX_POINT ( 'NONE', #113 ) ;
#46 = CIRCLE ( 'NONE', #158, 5.000000000000000000 ) ;
#47 = PERSON_AND_ORGANIZATION ( #101, #37 ) ;
#48 = PERSON_AND_ORGANIZATION_ROLE ( 'creator' ) ;
#49 = PRODUCT_DEFINITION_FORMATION_WITH_SPECIFIED_SOURCE ( 'ANY', '', #117, .NOT_KNOWN. ) ;
#50 = APPROVAL_STATUS ( 'not_yet_approved' ) ;
#51 = APPROVAL_DATE_TIME ( #88, #151 ) ;
#52 = PERSON_AND_ORGANIZATION ( #101, #37 ) ;
#53 = CARTESIAN_POINT ( 'NONE',  ( -8.551662891793916512E-30, 2.999519565323715216E-31, -2.449293598294706513E-15 ) ) ;
#54 = PRODUCT_DEFINITION ( 'UNKNOWN', '', #49, #16 ) ;
#55 =( GEOMETRIC_REPRESENTATION_CONTEXT ( 3 ) GLOBAL_UNCERTAINTY_ASSIGNED_CONTEXT ( ( #164 ) ) GLOBAL_UNIT_ASSIGNED_CONTEXT ( ( #143, #108, #42 ) ) REPRESENTATION_CONTEXT ( 'NONE', 'WORKASPACE' ) );
#56 = CARTESIAN_POINT ( 'NONE',  ( 2.444036937190190982E-15, -8.572527594031463329E-17, 0.6999999999999992895 ) ) ;
#57 = DIRECTION ( 'NONE',  ( 4.237045877651918877E-31, 1.000000000000000000, 1.246832498358330099E-16 ) ) ;
#58 = FACE_OUTER_BOUND ( 'NONE', #72, .T. ) ;
#59 = COORDINATED_UNIVERSAL_TIME_OFFSET ( 1, 0, .AHEAD. ) ;
#60 = PERSON_AND_ORGANIZATION ( #101, #37 ) ;
#61 = APPROVAL ( #5, 'UNSPECIFIED' ) ;
#62 = PERSON_AND_ORGANIZATION ( #101, #37 ) ;
#63 = CIRCLE ( 'NONE', #91, 20.00000000000000000 ) ;
#64 = CALENDAR_DATE ( 2021, 6, 12 ) ;
#65 = EDGE_CURVE ( 'NONE', #154, #154, #7, .T. ) ;
#66 = PERSON_AND_ORGANIZATION_ROLE ( 'design_supplier' ) ;
#67 = DIRECTION ( 'NONE',  ( 4.275831445896958607E-31, 1.000000000000000000, 1.224646799147353207E-16 ) ) ;
#68 = CARTESIAN_POINT ( 'NONE',  ( 2.444036937190184671E-15, -8.572527594031442375E-17, 0.6999999999999975131 ) ) ;
#69 = CC_DESIGN_PERSON_AND_ORGANIZATION_ASSIGNMENT ( #29, #139, ( #117 ) ) ;
#70 = LOCAL_TIME ( 14, 0, 5.000000000000000000, #103 ) ;
#71 = FACE_OUTER_BOUND ( 'NONE', #136, .T. ) ;
#72 = EDGE_LOOP ( 'NONE', ( #105 ) ) ;
#73 = FACE_OUTER_BOUND ( 'NONE', #123, .T. ) ;
#74 = DIRECTION ( 'NONE',  ( 4.275831445896958607E-31, 1.000000000000000000, 1.224646799147353207E-16 ) ) ;
#75 = CLOSED_SHELL ( 'NONE', ( #25, #125, #168, #147 ) ) ;
#76 = PLANE ( 'NONE',  #23 ) ;
#77 = APPROVAL_STATUS ( 'not_yet_approved' ) ;
#78 = CC_DESIGN_SECURITY_CLASSIFICATION ( #140, ( #49 ) ) ;
#79 = DATE_TIME_ROLE ( 'classification_date' ) ;
#80 = CALENDAR_DATE ( 2021, 6, 12 ) ;
#81 = DIRECTION ( 'NONE',  ( 4.275831445896958607E-31, 1.000000000000000000, 1.224646799147353207E-16 ) ) ;
#82 = LOCAL_TIME ( 14, 0, 5.000000000000000000, #35 ) ;
#83 = APPLICATION_CONTEXT ( 'configuration controlled 3d designs of mechanical parts and assemblies' ) ;
#84 = DIRECTION ( 'NONE',  ( -3.491481338843133355E-15, 1.224646799147353207E-16, -1.000000000000000000 ) ) ;
#85 = CARTESIAN_POINT ( 'NONE',  ( 2.444036937190193349E-15, 5.000000000000000000, 0.6999999999999999556 ) ) ;
#86 = APPROVAL_ROLE ( '' ) ;
#87 = PERSON_AND_ORGANIZATION_ROLE ( 'creator' ) ;
#88 = DATE_AND_TIME ( #64, #137 ) ;
#89 = APPLICATION_CONTEXT ( 'configuration controlled 3d designs of mechanical parts and assemblies' ) ;
#90 = COORDINATED_UNIVERSAL_TIME_OFFSET ( 1, 0, .AHEAD. ) ;
#91 = AXIS2_PLACEMENT_3D ( 'NONE', #68, #102, #57 ) ;
#92 = PRODUCT_DEFINITION_SHAPE ( 'NONE', 'NONE',  #54 ) ;
#93 = DIRECTION ( 'NONE',  ( -3.491481338843133355E-15, 1.224646799147353207E-16, -1.000000000000000000 ) ) ;
#94 = PRODUCT_RELATED_PRODUCT_CATEGORY ( 'detail', '', ( #117 ) ) ;
#95 = ORIENTED_EDGE ( 'NONE', *, *, #126, .F. ) ;
#96 = ORIENTED_EDGE ( 'NONE', *, *, #44, .T. ) ;
#97 = APPLICATION_PROTOCOL_DEFINITION ( 'international standard', 'config_control_design', 1994, #83 ) ;
#98 = MECHANICAL_CONTEXT ( 'NONE', #83, 'mechanical' ) ;
#99 = CARTESIAN_POINT ( 'NONE',  ( 0.0000000000000000000, 0.0000000000000000000, 0.0000000000000000000 ) ) ;
#100 = DIRECTION ( 'NONE',  ( 0.0000000000000000000, 0.0000000000000000000, 1.000000000000000000 ) ) ;
#101 = PERSON ( 'UNSPECIFIED', 'UNSPECIFIED', 'UNSPECIFIED', ('UNSPECIFIED'), ('UNSPECIFIED'), ('UNSPECIFIED') ) ;
#102 = DIRECTION ( 'NONE',  ( -3.491481338843133355E-15, 1.224646799147353207E-16, -1.000000000000000000 ) ) ;
#103 = COORDINATED_UNIVERSAL_TIME_OFFSET ( 1, 0, .AHEAD. ) ;
#104 = EDGE_LOOP ( 'NONE', ( #96 ) ) ;
#105 = ORIENTED_EDGE ( 'NONE', *, *, #44, .F. ) ;
#106 = DIRECTION ( 'NONE',  ( -3.491481338843133355E-15, 1.224646799147353207E-16, -1.000000000000000000 ) ) ;
#107 = LOCAL_TIME ( 14, 0, 5.000000000000000000, #31 ) ;
#108 =( NAMED_UNIT ( * ) PLANE_ANGLE_UNIT ( ) SI_UNIT ( $, .RADIAN. ) );
#109 = CARTESIAN_POINT ( 'NONE',  ( 2.444036937190190193E-15, 5.000000000000000000, 0.6999999999999991784 ) ) ;
#110 = FACE_OUTER_BOUND ( 'NONE', #36, .T. ) ;
#111 = DIRECTION ( 'NONE',  ( 1.000000000000000000, 0.0000000000000000000, 0.0000000000000000000 ) ) ;
#112 = CC_DESIGN_APPROVAL ( #118, ( #49 ) ) ;
#113 = CARTESIAN_POINT ( 'NONE',  ( 2.444036937190193349E-15, 20.00000000000000000, 0.6999999999999999556 ) ) ;
#114 = CC_DESIGN_DATE_AND_TIME_ASSIGNMENT ( #146, #79, ( #140 ) ) ;
#115 = AXIS2_PLACEMENT_3D ( 'NONE', #24, #121, #67 ) ;
#116 = SECURITY_CLASSIFICATION_LEVEL ( 'unclassified' ) ;
#117 = PRODUCT ( '649', '649', '', ( #98 ) ) ;
#118 = APPROVAL ( #77, 'UNSPECIFIED' ) ;
#119 = FACE_OUTER_BOUND ( 'NONE', #12, .T. ) ;
#120 = CARTESIAN_POINT ( 'NONE',  ( -3.206873584422719743E-30, 5.000000000000000000, -9.184850993605149917E-16 ) ) ;
#121 = DIRECTION ( 'NONE',  ( -3.491481338843133355E-15, 1.224646799147353207E-16, -1.000000000000000000 ) ) ;
#122 = PLANE ( 'NONE',  #2 ) ;
#123 = EDGE_LOOP ( 'NONE', ( #161 ) ) ;
#124 = CARTESIAN_POINT ( 'NONE',  ( 0.0000000000000000000, 20.00000000000000000, 0.0000000000000000000 ) ) ;
#125 = ADVANCED_FACE ( 'NONE', ( #10, #119 ), #3, .T. ) ;
#126 = EDGE_CURVE ( 'NONE', #8, #8, #21, .T. ) ;
#127 = CC_DESIGN_PERSON_AND_ORGANIZATION_ASSIGNMENT ( #52, #66, ( #49 ) ) ;
#128 = APPLICATION_PROTOCOL_DEFINITION ( 'international standard', 'config_control_design', 1994, #89 ) ;
#129 = CC_DESIGN_PERSON_AND_ORGANIZATION_ASSIGNMENT ( #47, #87, ( #54 ) ) ;
#130 = APPROVAL_ROLE ( '' ) ;
#131 = PERSON_AND_ORGANIZATION ( #101, #37 ) ;
#132 = AXIS2_PLACEMENT_3D ( 'NONE', #17, #100, #111 ) ;
#133 = DIRECTION ( 'NONE',  ( 4.622231866529366047E-31, 1.000000000000000000, 1.301042606982605321E-16 ) ) ;
#134 = APPROVAL_PERSON_ORGANIZATION ( #153, #118, #130 ) ;
#135 = FACE_BOUND ( 'NONE', #22, .T. ) ;
#136 = EDGE_LOOP ( 'NONE', ( #40 ) ) ;
#137 = LOCAL_TIME ( 14, 0, 5.000000000000000000, #90 ) ;
#138 = EDGE_CURVE ( 'NONE', #45, #45, #63, .T. ) ;
#139 = PERSON_AND_ORGANIZATION_ROLE ( 'design_owner' ) ;
#140 = SECURITY_CLASSIFICATION ( '', '', #116 ) ;
#141 = ADVANCED_BREP_SHAPE_REPRESENTATION ( '649', ( #13, #132 ), #55 ) ;
#142 = DIRECTION ( 'NONE',  ( 3.491481338843133355E-15, -1.224646799147353207E-16, 1.000000000000000000 ) ) ;
#143 =( LENGTH_UNIT ( ) NAMED_UNIT ( * ) SI_UNIT ( .MILLI., .METRE. ) );
#144 = CC_DESIGN_PERSON_AND_ORGANIZATION_ASSIGNMENT ( #131, #48, ( #49 ) ) ;
#145 = APPROVAL_DATE_TIME ( #169, #118 ) ;
#146 = DATE_AND_TIME ( #80, #82 ) ;
#147 = ADVANCED_FACE ( 'NONE', ( #110, #58 ), #15, .F. ) ;
#148 = ORIENTED_EDGE ( 'NONE', *, *, #138, .T. ) ;
#149 = DIRECTION ( 'NONE',  ( 4.275831445896958607E-31, 1.000000000000000000, 1.224646799147353207E-16 ) ) ;
#150 = EDGE_LOOP ( 'NONE', ( #148 ) ) ;
#151 = APPROVAL ( #50, 'UNSPECIFIED' ) ;
#152 = AXIS2_PLACEMENT_3D ( 'NONE', #99, #14, #74 ) ;
#153 = PERSON_AND_ORGANIZATION ( #101, #37 ) ;
#154 = VERTEX_POINT ( 'NONE', #43 ) ;
#155 = CC_DESIGN_APPROVAL ( #61, ( #54 ) ) ;
#156 = DIRECTION ( 'NONE',  ( -4.275831445896958607E-31, -1.000000000000000000, -1.224646799147353207E-16 ) ) ;
#157 = APPROVAL_ROLE ( '' ) ;
#158 = AXIS2_PLACEMENT_3D ( 'NONE', #56, #106, #133 ) ;
#159 = SHAPE_DEFINITION_REPRESENTATION ( #92, #141 ) ;
#160 = DIRECTION ( 'NONE',  ( -3.491481338843133355E-15, 1.224646799147353207E-16, -1.000000000000000000 ) ) ;
#161 = ORIENTED_EDGE ( 'NONE', *, *, #138, .F. ) ;
#162 = LOCAL_TIME ( 14, 0, 5.000000000000000000, #59 ) ;
#163 = VERTEX_POINT ( 'NONE', #85 ) ;
#164 = UNCERTAINTY_MEASURE_WITH_UNIT (LENGTH_MEASURE( 1.000000000000000082E-05 ), #143, 'distance_accuracy_value', 'NONE');
#165 = CALENDAR_DATE ( 2021, 6, 12 ) ;
#166 = DATE_AND_TIME ( #6, #107 ) ;
#167 = AXIS2_PLACEMENT_3D ( 'NONE', #53, #84, #149 ) ;
#168 = ADVANCED_FACE ( 'NONE', ( #27, #73 ), #76, .T. ) ;
#169 = DATE_AND_TIME ( #34, #70 ) ;
ENDSEC;
END-ISO-10303-21;
