ISO-10303-21;
HEADER;
FILE_DESCRIPTION (( 'STEP AP203' ),
    '1' );
FILE_NAME ('64809.step',
    '2021-11-01T12:23:47',
    ( '' ),
    ( '' ),
    'SwSTEP 2.0',
    'SolidWorks 2019',
    '' );
FILE_SCHEMA (( 'CONFIG_CONTROL_DESIGN' ));
ENDSEC;

DATA;
#1 = CALENDAR_DATE ( 2021, 1, 11 ) ;
#2 = DIRECTION ( 'NONE',  ( 3.491481338843133355E-15, -1.227517819005651059E-16, 1.000000000000000000 ) ) ;
#3 = PLANE ( 'NONE',  #6 ) ;
#4 = DIRECTION ( 'NONE',  ( 0.0000000000000000000, 0.0000000000000000000, 1.000000000000000000 ) ) ;
#5 = FACE_OUTER_BOUND ( 'NONE', #97, .T. ) ;
#6 = AXIS2_PLACEMENT_3D ( 'NONE', #144, #124, #126 ) ;
#7 = DIRECTION ( 'NONE',  ( 0.0000000000000000000, 1.000000000000000000, 0.0000000000000000000 ) ) ;
#8 = PERSON_AND_ORGANIZATION_ROLE ( 'creator' ) ;
#9 = FACE_BOUND ( 'NONE', #33, .T. ) ;
#10 = CIRCLE ( 'NONE', #215, 1.499999999999996669 ) ;
#11 = ADVANCED_FACE ( 'NONE', ( #84, #150 ), #54, .F. ) ;
#12 = CARTESIAN_POINT ( 'NONE',  ( 2.444036937190192402E-14, -1.200000000000001510, 6.999999999999997335 ) ) ;
#13 = ADVANCED_FACE ( 'NONE', ( #177, #9 ), #158, .T. ) ;
#14 = SHAPE_DEFINITION_REPRESENTATION ( #112, #62 ) ;
#15 = CIRCLE ( 'NONE', #47, 1.200000000000000622 ) ;
#16 = CALENDAR_DATE ( 2021, 1, 11 ) ;
#17 = CC_DESIGN_SECURITY_CLASSIFICATION ( #111, ( #50 ) ) ;
#18 = FACE_OUTER_BOUND ( 'NONE', #184, .T. ) ;
#19 = APPLICATION_CONTEXT ( 'configuration controlled 3d designs of mechanical parts and assemblies' ) ;
#20 = CARTESIAN_POINT ( 'NONE',  ( 1.316288464743861212E-13, -4.616918432785521081E-15, 37.69999999999999574 ) ) ;
#21 = DIRECTION ( 'NONE',  ( 3.491481338843133355E-15, -1.227517819005651059E-16, 1.000000000000000000 ) ) ;
#22 = CARTESIAN_POINT ( 'NONE',  ( 0.0000000000000000000, 0.0000000000000000000, 0.0000000000000000000 ) ) ;
#23 = LOCAL_TIME ( 13, 23, 47.00000000000000000, #107 ) ;
#24 = PERSON_AND_ORGANIZATION ( #99, #98 ) ;
#25 = ADVANCED_FACE ( 'NONE', ( #121 ), #105, .F. ) ;
#26 = DIRECTION ( 'NONE',  ( 3.491481338843133355E-15, -1.224646799147353207E-16, 1.000000000000000000 ) ) ;
#27 = CLOSED_SHELL ( 'NONE', ( #170, #13, #67, #11, #100 ) ) ;
#28 = CALENDAR_DATE ( 2021, 1, 11 ) ;
#29 = PLANE ( 'NONE',  #204 ) ;
#30 = CIRCLE ( 'NONE', #135, 1.199999999999996403 ) ;
#31 = CIRCLE ( 'NONE', #70, 1.200000000000000622 ) ;
#32 = PRODUCT ( '64809', '64809', '', ( #58 ) ) ;
#33 = EDGE_LOOP ( 'NONE', ( #147 ) ) ;
#34 = PERSON_AND_ORGANIZATION ( #99, #98 ) ;
#35 = EDGE_LOOP ( 'NONE', ( #81 ) ) ;
#36 = ORIENTED_EDGE ( 'NONE', *, *, #139, .T. ) ;
#37 = CC_DESIGN_PERSON_AND_ORGANIZATION_ASSIGNMENT ( #104, #211, ( #32 ) ) ;
#38 = DIRECTION ( 'NONE',  ( -3.491481338843133355E-15, 1.224646799147353207E-16, -1.000000000000000000 ) ) ;
#39 = DIRECTION ( 'NONE',  ( -3.491481338843133355E-15, 1.227517819005651059E-16, -1.000000000000000000 ) ) ;
#40 = APPLICATION_PROTOCOL_DEFINITION ( 'international standard', 'config_control_design', 1994, #217 ) ;
#41 = APPROVAL_ROLE ( '' ) ;
#42 = FACE_OUTER_BOUND ( 'NONE', #168, .T. ) ;
#43 = PERSON_AND_ORGANIZATION ( #99, #98 ) ;
#44 = FACE_OUTER_BOUND ( 'NONE', #35, .T. ) ;
#45 =( NAMED_UNIT ( * ) SI_UNIT ( $, .STERADIAN. ) SOLID_ANGLE_UNIT ( ) );
#46 = VERTEX_POINT ( 'NONE', #113 ) ;
#47 = AXIS2_PLACEMENT_3D ( 'NONE', #69, #134, #205 ) ;
#48 = ORIENTED_EDGE ( 'NONE', *, *, #82, .F. ) ;
#49 = EDGE_LOOP ( 'NONE', ( #163 ) ) ;
#50 = PRODUCT_DEFINITION_FORMATION_WITH_SPECIFIED_SOURCE ( 'ANY', '', #32, .NOT_KNOWN. ) ;
#51 = ORIENTED_EDGE ( 'NONE', *, *, #136, .F. ) ;
#52 = PERSON_AND_ORGANIZATION ( #99, #98 ) ;
#53 = CARTESIAN_POINT ( 'NONE',  ( 1.326762908760390423E-13, -4.653657836759941941E-15, 38.00000000000000000 ) ) ;
#54 = TOROIDAL_SURFACE ( 'NONE', #194, 9.199999999999999289, 8.000000000000000000 ) ;
#55 = APPROVAL_ROLE ( '' ) ;
#56 = LOCAL_TIME ( 13, 23, 47.00000000000000000, #120 ) ;
#57 = VERTEX_POINT ( 'NONE', #197 ) ;
#58 = MECHANICAL_CONTEXT ( 'NONE', #19, 'mechanical' ) ;
#59 = DIRECTION ( 'NONE',  ( 0.0000000000000000000, -1.000000000000000000, 0.0000000000000000000 ) ) ;
#60 = DIRECTION ( 'NONE',  ( -4.347612056767884799E-31, -1.000000000000000000, -1.227517819005651059E-16 ) ) ;
#61 = AXIS2_PLACEMENT_3D ( 'NONE', #22, #4, #140 ) ;
#62 = ADVANCED_BREP_SHAPE_REPRESENTATION ( '64809', ( #122, #190, #61 ), #127 ) ;
#63 = APPROVAL_PERSON_ORGANIZATION ( #24, #76, #41 ) ;
#64 = DATE_AND_TIME ( #1, #65 ) ;
#65 = LOCAL_TIME ( 13, 23, 47.00000000000000000, #133 ) ;
#66 = CALENDAR_DATE ( 2021, 1, 11 ) ;
#67 = ADVANCED_FACE ( 'NONE', ( #5 ), #29, .F. ) ;
#68 = CARTESIAN_POINT ( 'NONE',  ( 1.326762908760390423E-13, -4.653657836759941941E-15, 38.00000000000000000 ) ) ;
#69 = CARTESIAN_POINT ( 'NONE',  ( 2.444036937190192402E-14, -8.592624733039553959E-16, 6.999999999999997335 ) ) ;
#70 = AXIS2_PLACEMENT_3D ( 'NONE', #73, #21, #59 ) ;
#71 = AXIS2_PLACEMENT_3D ( 'NONE', #189, #106, #91 ) ;
#72 = CARTESIAN_POINT ( 'NONE',  ( -8.551680453529350800E-31, 2.999525725151307090E-32, -2.449298628175645296E-16 ) ) ;
#73 = CARTESIAN_POINT ( 'NONE',  ( 2.444036937190192402E-14, -8.592624733039553959E-16, 6.999999999999997335 ) ) ;
#74 = PERSON_AND_ORGANIZATION ( #99, #98 ) ;
#75 = FACE_OUTER_BOUND ( 'NONE', #220, .T. ) ;
#76 = APPROVAL ( #125, 'UNSPECIFIED' ) ;
#77 = LOCAL_TIME ( 13, 23, 47.00000000000000000, #83 ) ;
#78 = ORIENTED_EDGE ( 'NONE', *, *, #82, .T. ) ;
#79 = CARTESIAN_POINT ( 'NONE',  ( 2.444036937190192402E-14, -1.200000000000001510, 6.999999999999997335 ) ) ;
#80 = CLOSED_SHELL ( 'NONE', ( #162, #183, #25 ) ) ;
#81 = ORIENTED_EDGE ( 'NONE', *, *, #176, .T. ) ;
#82 = EDGE_CURVE ( 'NONE', #57, #57, #88, .T. ) ;
#83 = COORDINATED_UNIVERSAL_TIME_OFFSET ( 1, 0, .AHEAD. ) ;
#84 = FACE_OUTER_BOUND ( 'NONE', #223, .T. ) ;
#85 = CYLINDRICAL_SURFACE ( 'NONE', #137, 1.200000000000000178 ) ;
#86 = DIRECTION ( 'NONE',  ( -4.275831445896958607E-31, -1.000000000000000000, -1.224646799147353207E-16 ) ) ;
#87 = DIRECTION ( 'NONE',  ( 0.0000000000000000000, 1.000000000000000000, 0.0000000000000000000 ) ) ;
#88 = CIRCLE ( 'NONE', #93, 1.199999999999999734 ) ;
#89 = APPROVAL_PERSON_ORGANIZATION ( #52, #178, #55 ) ;
#90 = DATE_TIME_ROLE ( 'creation_date' ) ;
#91 = DIRECTION ( 'NONE',  ( 4.275831445896958607E-31, 1.000000000000000000, 1.224646799147353207E-16 ) ) ;
#92 = VERTEX_POINT ( 'NONE', #218 ) ;
#93 = AXIS2_PLACEMENT_3D ( 'NONE', #141, #193, #128 ) ;
#94 = CARTESIAN_POINT ( 'NONE',  ( 3.201776876318361211E-14, 1.499999999999994671, 9.170253441421047924 ) ) ;
#95 = ORIENTED_EDGE ( 'NONE', *, *, #139, .F. ) ;
#96 = PERSON_AND_ORGANIZATION ( #99, #98 ) ;
#97 = EDGE_LOOP ( 'NONE', ( #51 ) ) ;
#98 = ORGANIZATION ( 'UNSPECIFIED', 'UNSPECIFIED', '' ) ;
#99 = PERSON ( 'UNSPECIFIED', 'UNSPECIFIED', 'UNSPECIFIED', ('UNSPECIFIED'), ('UNSPECIFIED'), ('UNSPECIFIED') ) ;
#100 = ADVANCED_FACE ( 'NONE', ( #75 ), #212, .F. ) ;
#101 = CYLINDRICAL_SURFACE ( 'NONE', #71, 1.499999999999994893 ) ;
#102 = DATE_AND_TIME ( #66, #77 ) ;
#103 = CARTESIAN_POINT ( 'NONE',  ( 2.444036937190192718E-14, 0.0000000000000000000, 6.999999999999998224 ) ) ;
#104 = PERSON_AND_ORGANIZATION ( #99, #98 ) ;
#105 = PLANE ( 'NONE',  #145 ) ;
#106 = DIRECTION ( 'NONE',  ( -3.491481338843133355E-15, 1.224646799147353207E-16, -1.000000000000000000 ) ) ;
#107 = COORDINATED_UNIVERSAL_TIME_OFFSET ( 1, 0, .AHEAD. ) ;
#108 = DIRECTION ( 'NONE',  ( 4.275831445896958607E-31, 1.000000000000000000, 1.224646799147353207E-16 ) ) ;
#109 =( NAMED_UNIT ( * ) PLANE_ANGLE_UNIT ( ) SI_UNIT ( $, .RADIAN. ) );
#110 = VERTEX_POINT ( 'NONE', #94 ) ;
#111 = SECURITY_CLASSIFICATION ( '', '', #201 ) ;
#112 = PRODUCT_DEFINITION_SHAPE ( 'NONE', 'NONE',  #186 ) ;
#113 = CARTESIAN_POINT ( 'NONE',  ( 1.326762908760390423E-13, 1.199999999999991962, 38.00000000000000000 ) ) ;
#114 = EDGE_LOOP ( 'NONE', ( #78 ) ) ;
#115 = CC_DESIGN_APPROVAL ( #76, ( #186 ) ) ;
#116 = ORIENTED_EDGE ( 'NONE', *, *, #216, .F. ) ;
#117 = PERSON_AND_ORGANIZATION ( #99, #98 ) ;
#118 = ORIENTED_EDGE ( 'NONE', *, *, #160, .F. ) ;
#119 = DIRECTION ( 'NONE',  ( 3.491481338843133355E-15, -1.227517819005651059E-16, 1.000000000000000000 ) ) ;
#120 = COORDINATED_UNIVERSAL_TIME_OFFSET ( 1, 0, .AHEAD. ) ;
#121 = FACE_OUTER_BOUND ( 'NONE', #198, .T. ) ;
#122 = MANIFOLD_SOLID_BREP ( 'Corps-Déplacer/Copier1[1]', #27 ) ;
#123 = CALENDAR_DATE ( 2021, 1, 11 ) ;
#124 = DIRECTION ( 'NONE',  ( 3.491481338843133355E-15, -1.224646799147353207E-16, 1.000000000000000000 ) ) ;
#125 = APPROVAL_STATUS ( 'not_yet_approved' ) ;
#126 = DIRECTION ( 'NONE',  ( -4.275831445896958607E-31, -1.000000000000000000, -1.224646799147353207E-16 ) ) ;
#127 =( GEOMETRIC_REPRESENTATION_CONTEXT ( 3 ) GLOBAL_UNCERTAINTY_ASSIGNED_CONTEXT ( ( #157 ) ) GLOBAL_UNIT_ASSIGNED_CONTEXT ( ( #181, #109, #45 ) ) REPRESENTATION_CONTEXT ( 'NONE', 'WORKASPACE' ) );
#128 = DIRECTION ( 'NONE',  ( -4.285855558155654155E-31, -1.000000000000000000, -1.227517819005651059E-16 ) ) ;
#129 = APPROVAL_DATE_TIME ( #102, #143 ) ;
#130 = APPROVAL_DATE_TIME ( #64, #178 ) ;
#131 = FACE_OUTER_BOUND ( 'NONE', #49, .T. ) ;
#132 = PRODUCT_RELATED_PRODUCT_CATEGORY ( 'detail', '', ( #32 ) ) ;
#133 = COORDINATED_UNIVERSAL_TIME_OFFSET ( 1, 0, .AHEAD. ) ;
#134 = DIRECTION ( 'NONE',  ( 3.491481338843133355E-15, -1.227517819005651059E-16, 1.000000000000000000 ) ) ;
#135 = AXIS2_PLACEMENT_3D ( 'NONE', #68, #191, #159 ) ;
#136 = EDGE_CURVE ( 'NONE', #46, #46, #30, .T. ) ;
#137 = AXIS2_PLACEMENT_3D ( 'NONE', #152, #119, #172 ) ;
#138 = CARTESIAN_POINT ( 'NONE',  ( 3.201776876318361211E-14, -2.664024771102676555E-16, 9.170253441421047924 ) ) ;
#139 = EDGE_CURVE ( 'NONE', #110, #110, #165, .T. ) ;
#140 = DIRECTION ( 'NONE',  ( 1.000000000000000000, 0.0000000000000000000, 0.0000000000000000000 ) ) ;
#141 = CARTESIAN_POINT ( 'NONE',  ( -5.143026669786783760E-31, -4.467482701150640543E-33, -1.473021382806780827E-16 ) ) ;
#142 = DATE_AND_TIME ( #28, #23 ) ;
#143 = APPROVAL ( #199, 'UNSPECIFIED' ) ;
#144 = CARTESIAN_POINT ( 'NONE',  ( 2.444036937190193033E-14, 1.124819836996386774E-32, 6.999999999999999112 ) ) ;
#145 = AXIS2_PLACEMENT_3D ( 'NONE', #72, #155, #86 ) ;
#146 = CC_DESIGN_PERSON_AND_ORGANIZATION_ASSIGNMENT ( #117, #167, ( #50 ) ) ;
#147 = ORIENTED_EDGE ( 'NONE', *, *, #136, .T. ) ;
#148 = EDGE_LOOP ( 'NONE', ( #36 ) ) ;
#149 = APPROVAL_ROLE ( '' ) ;
#150 = FACE_OUTER_BOUND ( 'NONE', #148, .T. ) ;
#151 = DATE_TIME_ROLE ( 'classification_date' ) ;
#152 = CARTESIAN_POINT ( 'NONE',  ( -6.413731847436034514E-31, 0.0000000000000000000, -1.836965810494968570E-16 ) ) ;
#153 = DIRECTION ( 'NONE',  ( -3.491481338843133355E-15, 1.224646799147353207E-16, -1.000000000000000000 ) ) ;
#154 = DATE_AND_TIME ( #123, #188 ) ;
#155 = DIRECTION ( 'NONE',  ( 3.491481338843133355E-15, -1.224646799147353207E-16, 1.000000000000000000 ) ) ;
#156 = CC_DESIGN_APPROVAL ( #143, ( #50 ) ) ;
#157 = UNCERTAINTY_MEASURE_WITH_UNIT (LENGTH_MEASURE( 1.000000000000000082E-05 ), #181, 'distance_accuracy_value', 'NONE');
#158 = CONICAL_SURFACE ( 'NONE', #179, 1.199999999999996403, 0.7853981633974461696 ) ;
#159 = DIRECTION ( 'NONE',  ( 0.0000000000000000000, 1.000000000000000000, 0.0000000000000000000 ) ) ;
#160 = EDGE_CURVE ( 'NONE', #164, #164, #31, .T. ) ;
#161 = FACE_OUTER_BOUND ( 'NONE', #114, .T. ) ;
#162 = ADVANCED_FACE ( 'NONE', ( #131 ), #3, .T. ) ;
#163 = ORIENTED_EDGE ( 'NONE', *, *, #216, .T. ) ;
#164 = VERTEX_POINT ( 'NONE', #12 ) ;
#165 = CIRCLE ( 'NONE', #208, 1.499999999999994893 ) ;
#166 = ORIENTED_EDGE ( 'NONE', *, *, #176, .F. ) ;
#167 = PERSON_AND_ORGANIZATION_ROLE ( 'creator' ) ;
#168 = EDGE_LOOP ( 'NONE', ( #95 ) ) ;
#169 = PERSON_AND_ORGANIZATION_ROLE ( 'classification_officer' ) ;
#170 = ADVANCED_FACE ( 'NONE', ( #44, #42 ), #101, .T. ) ;
#171 = CC_DESIGN_APPROVAL ( #178, ( #111 ) ) ;
#172 = DIRECTION ( 'NONE',  ( -4.285855558155653280E-31, -1.000000000000000000, -1.227517819005650812E-16 ) ) ;
#173 = CARTESIAN_POINT ( 'NONE',  ( 1.326762908760390423E-13, 8.998558695971051224E-33, 38.00000000000000000 ) ) ;
#174 = CC_DESIGN_PERSON_AND_ORGANIZATION_ASSIGNMENT ( #34, #221, ( #50 ) ) ;
#175 = APPROVAL_PERSON_ORGANIZATION ( #74, #143, #149 ) ;
#176 = EDGE_CURVE ( 'NONE', #92, #92, #10, .T. ) ;
#177 = FACE_OUTER_BOUND ( 'NONE', #200, .T. ) ;
#178 = APPROVAL ( #187, 'UNSPECIFIED' ) ;
#179 = AXIS2_PLACEMENT_3D ( 'NONE', #53, #153, #87 ) ;
#180 = COORDINATED_UNIVERSAL_TIME_OFFSET ( 1, 0, .AHEAD. ) ;
#181 =( LENGTH_UNIT ( ) NAMED_UNIT ( * ) SI_UNIT ( .MILLI., .METRE. ) );
#182 = AXIS2_PLACEMENT_3D ( 'NONE', #210, #26, #196 ) ;
#183 = ADVANCED_FACE ( 'NONE', ( #161, #18 ), #85, .T. ) ;
#184 = EDGE_LOOP ( 'NONE', ( #116 ) ) ;
#185 = ORIENTED_EDGE ( 'NONE', *, *, #160, .T. ) ;
#186 = PRODUCT_DEFINITION ( 'UNKNOWN', '', #50, #207 ) ;
#187 = APPROVAL_STATUS ( 'not_yet_approved' ) ;
#188 = LOCAL_TIME ( 13, 23, 47.00000000000000000, #180 ) ;
#189 = CARTESIAN_POINT ( 'NONE',  ( 0.0000000000000000000, 0.0000000000000000000, 0.0000000000000000000 ) ) ;
#190 = MANIFOLD_SOLID_BREP ( 'Corps-Déplacer/Copier1[2]', #80 ) ;
#191 = DIRECTION ( 'NONE',  ( -3.491481338843133355E-15, 1.224646799147353207E-16, -1.000000000000000000 ) ) ;
#192 = CC_DESIGN_PERSON_AND_ORGANIZATION_ASSIGNMENT ( #43, #8, ( #186 ) ) ;
#193 = DIRECTION ( 'NONE',  ( 3.491481338843133355E-15, -1.227517819005651059E-16, 1.000000000000000000 ) ) ;
#194 = AXIS2_PLACEMENT_3D ( 'NONE', #103, #2, #60 ) ;
#195 = VERTEX_POINT ( 'NONE', #79 ) ;
#196 = DIRECTION ( 'NONE',  ( -4.275831445896958607E-31, -1.000000000000000000, -1.224646799147353207E-16 ) ) ;
#197 = CARTESIAN_POINT ( 'NONE',  ( -1.028605333957356752E-30, -1.199999999999999734, -2.946042765613561653E-16 ) ) ;
#198 = EDGE_LOOP ( 'NONE', ( #48 ) ) ;
#199 = APPROVAL_STATUS ( 'not_yet_approved' ) ;
#200 = EDGE_LOOP ( 'NONE', ( #166 ) ) ;
#201 = SECURITY_CLASSIFICATION_LEVEL ( 'unclassified' ) ;
#202 = DATE_AND_TIME ( #16, #56 ) ;
#203 = DIRECTION ( 'NONE',  ( 0.0000000000000000000, 1.000000000000000000, 0.0000000000000000000 ) ) ;
#204 = AXIS2_PLACEMENT_3D ( 'NONE', #173, #38, #108 ) ;
#205 = DIRECTION ( 'NONE',  ( 0.0000000000000000000, -1.000000000000000000, 0.0000000000000000000 ) ) ;
#206 = CC_DESIGN_PERSON_AND_ORGANIZATION_ASSIGNMENT ( #96, #169, ( #111 ) ) ;
#207 = DESIGN_CONTEXT ( 'detailed design', #217, 'design' ) ;
#208 = AXIS2_PLACEMENT_3D ( 'NONE', #138, #39, #7 ) ;
#209 = APPLICATION_PROTOCOL_DEFINITION ( 'international standard', 'config_control_design', 1994, #19 ) ;
#210 = CARTESIAN_POINT ( 'NONE',  ( 2.444036937190193033E-14, 1.124819836996386774E-32, 6.999999999999999112 ) ) ;
#211 = PERSON_AND_ORGANIZATION_ROLE ( 'design_owner' ) ;
#212 = PLANE ( 'NONE',  #182 ) ;
#213 = APPROVAL_DATE_TIME ( #154, #76 ) ;
#214 = DIRECTION ( 'NONE',  ( -3.491481338843133355E-15, 1.224646799147353207E-16, -1.000000000000000000 ) ) ;
#215 = AXIS2_PLACEMENT_3D ( 'NONE', #20, #214, #203 ) ;
#216 = EDGE_CURVE ( 'NONE', #195, #195, #15, .T. ) ;
#217 = APPLICATION_CONTEXT ( 'configuration controlled 3d designs of mechanical parts and assemblies' ) ;
#218 = CARTESIAN_POINT ( 'NONE',  ( 1.316288464743861212E-13, 1.499999999999992228, 37.69999999999999574 ) ) ;
#219 = CC_DESIGN_DATE_AND_TIME_ASSIGNMENT ( #142, #90, ( #186 ) ) ;
#220 = EDGE_LOOP ( 'NONE', ( #118 ) ) ;
#221 = PERSON_AND_ORGANIZATION_ROLE ( 'design_supplier' ) ;
#222 = CC_DESIGN_DATE_AND_TIME_ASSIGNMENT ( #202, #151, ( #111 ) ) ;
#223 = EDGE_LOOP ( 'NONE', ( #185 ) ) ;
ENDSEC;
END-ISO-10303-21;
