ISO-10303-21;
HEADER;
FILE_DESCRIPTION (( 'STEP AP203' ),
    '1' );
FILE_NAME ('648.step',
    '2021-12-06T13:00:04',
    ( '' ),
    ( '' ),
    'SwSTEP 2.0',
    'SolidWorks 2019',
    '' );
FILE_SCHEMA (( 'CONFIG_CONTROL_DESIGN' ));
ENDSEC;

DATA;
#1 = EDGE_LOOP ( 'NONE', ( #5 ) ) ;
#2 = AXIS2_PLACEMENT_3D ( 'NONE', #18, #65, #90 ) ;
#3 = ADVANCED_FACE ( 'NONE', ( #46, #115 ), #130, .T. ) ;
#4 = EDGE_LOOP ( 'NONE', ( #162 ) ) ;
#5 = ORIENTED_EDGE ( 'NONE', *, *, #103, .F. ) ;
#6 = EDGE_CURVE ( 'NONE', #78, #78, #29, .T. ) ;
#7 = DIRECTION ( 'NONE',  ( 0.0000000000000000000, 0.0000000000000000000, 1.000000000000000000 ) ) ;
#8 = CARTESIAN_POINT ( 'NONE',  ( -3.420665156717568287E-29, 4.799231304517948549E-30, -9.797174393178830785E-15 ) ) ;
#9 = DIRECTION ( 'NONE',  ( -3.491481338843133355E-15, 4.898587196589414801E-16, -1.000000000000000000 ) ) ;
#10 = DIRECTION ( 'NONE',  ( 1.710332578358784143E-30, 1.000000000000000000, 4.898587196589415787E-16 ) ) ;
#11 = DIRECTION ( 'NONE',  ( 1.710332578358784143E-30, 1.000000000000000000, 4.898587196589415787E-16 ) ) ;
#12 = SHAPE_DEFINITION_REPRESENTATION ( #93, #14 ) ;
#13 = APPROVAL_ROLE ( '' ) ;
#14 = ADVANCED_BREP_SHAPE_REPRESENTATION ( '648', ( #123, #60 ), #58 ) ;
#15 = EDGE_LOOP ( 'NONE', ( #131 ) ) ;
#16 = APPROVAL ( #99, 'UNSPECIFIED' ) ;
#17 = LOCAL_TIME ( 14, 0, 4.000000000000000000, #55 ) ;
#18 = CARTESIAN_POINT ( 'NONE',  ( -1.282749433769088458E-29, 5.000000000000000000, -3.673940397442061544E-15 ) ) ;
#19 = CARTESIAN_POINT ( 'NONE',  ( 1.745740669421557014E-15, -2.449293598294694088E-16, 0.4999999999999972800 ) ) ;
#20 = AXIS2_PLACEMENT_3D ( 'NONE', #19, #9, #21 ) ;
#21 = DIRECTION ( 'NONE',  ( 1.694818351060767551E-30, 1.000000000000000000, 4.987329993433320396E-16 ) ) ;
#22 = CALENDAR_DATE ( 2021, 6, 12 ) ;
#23 = PERSON_AND_ORGANIZATION_ROLE ( 'creator' ) ;
#24 = CALENDAR_DATE ( 2021, 6, 12 ) ;
#25 = APPROVAL_DATE_TIME ( #45, #30 ) ;
#26 = CC_DESIGN_APPROVAL ( #16, ( #100 ) ) ;
#27 = ORIENTED_EDGE ( 'NONE', *, *, #6, .T. ) ;
#28 = CARTESIAN_POINT ( 'NONE',  ( 1.745740669421553267E-15, 5.000000000000000000, 0.4999999999999961142 ) ) ;
#29 = CIRCLE ( 'NONE', #20, 5.000000000000000000 ) ;
#30 = APPROVAL ( #154, 'UNSPECIFIED' ) ;
#31 = CYLINDRICAL_SURFACE ( 'NONE', #146, 5.000000000000000000 ) ;
#32 = DIRECTION ( 'NONE',  ( -1.710332578358784143E-30, -1.000000000000000000, -4.898587196589414801E-16 ) ) ;
#33 = DIRECTION ( 'NONE',  ( 1.710332578358784143E-30, 1.000000000000000000, 4.898587196589415787E-16 ) ) ;
#34 = COORDINATED_UNIVERSAL_TIME_OFFSET ( 1, 0, .AHEAD. ) ;
#35 = PERSON_AND_ORGANIZATION ( #144, #97 ) ;
#36 = DATE_TIME_ROLE ( 'classification_date' ) ;
#37 = COORDINATED_UNIVERSAL_TIME_OFFSET ( 1, 0, .AHEAD. ) ;
#38 =( LENGTH_UNIT ( ) NAMED_UNIT ( * ) SI_UNIT ( .MILLI., .METRE. ) );
#39 = FACE_OUTER_BOUND ( 'NONE', #15, .T. ) ;
#40 = PERSON_AND_ORGANIZATION ( #144, #97 ) ;
#41 = CLOSED_SHELL ( 'NONE', ( #61, #95, #3, #118 ) ) ;
#42 = PERSON_AND_ORGANIZATION_ROLE ( 'design_owner' ) ;
#43 = COORDINATED_UNIVERSAL_TIME_OFFSET ( 1, 0, .AHEAD. ) ;
#44 = LOCAL_TIME ( 14, 0, 4.000000000000000000, #169 ) ;
#45 = DATE_AND_TIME ( #24, #92 ) ;
#46 = FACE_BOUND ( 'NONE', #129, .T. ) ;
#47 = CIRCLE ( 'NONE', #138, 20.00000000000000000 ) ;
#48 = AXIS2_PLACEMENT_3D ( 'NONE', #80, #152, #51 ) ;
#49 = DESIGN_CONTEXT ( 'detailed design', #105, 'design' ) ;
#50 = DIRECTION ( 'NONE',  ( 1.000000000000000000, 0.0000000000000000000, 0.0000000000000000000 ) ) ;
#51 = DIRECTION ( 'NONE',  ( 1.714077650504639909E-30, 1.000000000000000000, 4.878909776184769953E-16 ) ) ;
#52 = CC_DESIGN_APPROVAL ( #30, ( #132 ) ) ;
#53 = CARTESIAN_POINT ( 'NONE',  ( 0.0000000000000000000, 5.000000000000000000, 0.0000000000000000000 ) ) ;
#54 = DIRECTION ( 'NONE',  ( -3.491481338843133355E-15, 4.898587196589414801E-16, -1.000000000000000000 ) ) ;
#55 = COORDINATED_UNIVERSAL_TIME_OFFSET ( 1, 0, .AHEAD. ) ;
#56 = CALENDAR_DATE ( 2021, 6, 12 ) ;
#57 = CALENDAR_DATE ( 2021, 6, 12 ) ;
#58 =( GEOMETRIC_REPRESENTATION_CONTEXT ( 3 ) GLOBAL_UNCERTAINTY_ASSIGNED_CONTEXT ( ( #77 ) ) GLOBAL_UNIT_ASSIGNED_CONTEXT ( ( #38, #94, #134 ) ) REPRESENTATION_CONTEXT ( 'NONE', 'WORKASPACE' ) );
#59 = ORIENTED_EDGE ( 'NONE', *, *, #6, .F. ) ;
#60 = AXIS2_PLACEMENT_3D ( 'NONE', #117, #7, #50 ) ;
#61 = ADVANCED_FACE ( 'NONE', ( #165, #106 ), #135, .T. ) ;
#62 = EDGE_LOOP ( 'NONE', ( #147 ) ) ;
#63 = CC_DESIGN_PERSON_AND_ORGANIZATION_ASSIGNMENT ( #72, #113, ( #132 ) ) ;
#64 = CC_DESIGN_SECURITY_CLASSIFICATION ( #100, ( #132 ) ) ;
#65 = DIRECTION ( 'NONE',  ( -3.491481338843133355E-15, 4.898587196589414801E-16, -1.000000000000000000 ) ) ;
#66 = VERTEX_POINT ( 'NONE', #164 ) ;
#67 = APPROVAL_ROLE ( '' ) ;
#68 = CC_DESIGN_DATE_AND_TIME_ASSIGNMENT ( #102, #36, ( #100 ) ) ;
#69 = APPROVAL_ROLE ( '' ) ;
#70 = CALENDAR_DATE ( 2021, 6, 12 ) ;
#71 = APPLICATION_CONTEXT ( 'configuration controlled 3d designs of mechanical parts and assemblies' ) ;
#72 = PERSON_AND_ORGANIZATION ( #144, #97 ) ;
#73 = AXIS2_PLACEMENT_3D ( 'NONE', #28, #74, #32 ) ;
#74 = DIRECTION ( 'NONE',  ( 3.491481338843133355E-15, -4.898587196589414801E-16, 1.000000000000000000 ) ) ;
#75 = LOCAL_TIME ( 14, 0, 4.000000000000000000, #37 ) ;
#76 = EDGE_LOOP ( 'NONE', ( #85 ) ) ;
#77 = UNCERTAINTY_MEASURE_WITH_UNIT (LENGTH_MEASURE( 1.000000000000000082E-05 ), #38, 'distance_accuracy_value', 'NONE');
#78 = VERTEX_POINT ( 'NONE', #137 ) ;
#79 = CYLINDRICAL_SURFACE ( 'NONE', #86, 20.00000000000000000 ) ;
#80 = CARTESIAN_POINT ( 'NONE',  ( 1.745740669421532165E-15, -2.449293598294658590E-16, 0.4999999999999900080 ) ) ;
#81 = CIRCLE ( 'NONE', #121, 5.000000000000000000 ) ;
#82 = FACE_OUTER_BOUND ( 'NONE', #89, .T. ) ;
#83 = PERSON_AND_ORGANIZATION_ROLE ( 'classification_officer' ) ;
#84 = DATE_TIME_ROLE ( 'creation_date' ) ;
#85 = ORIENTED_EDGE ( 'NONE', *, *, #88, .F. ) ;
#86 = AXIS2_PLACEMENT_3D ( 'NONE', #153, #163, #33 ) ;
#87 = EDGE_LOOP ( 'NONE', ( #59 ) ) ;
#88 = EDGE_CURVE ( 'NONE', #139, #139, #81, .T. ) ;
#89 = EDGE_LOOP ( 'NONE', ( #133 ) ) ;
#90 = DIRECTION ( 'NONE',  ( 1.710332578358784143E-30, 1.000000000000000000, 4.898587196589414801E-16 ) ) ;
#91 = APPLICATION_PROTOCOL_DEFINITION ( 'international standard', 'config_control_design', 1994, #71 ) ;
#92 = LOCAL_TIME ( 14, 0, 4.000000000000000000, #34 ) ;
#93 = PRODUCT_DEFINITION_SHAPE ( 'NONE', 'NONE',  #101 ) ;
#94 =( NAMED_UNIT ( * ) PLANE_ANGLE_UNIT ( ) SI_UNIT ( $, .RADIAN. ) );
#95 = ADVANCED_FACE ( 'NONE', ( #39, #96 ), #79, .T. ) ;
#96 = FACE_OUTER_BOUND ( 'NONE', #1, .T. ) ;
#97 = ORGANIZATION ( 'UNSPECIFIED', 'UNSPECIFIED', '' ) ;
#98 = PERSON_AND_ORGANIZATION ( #144, #97 ) ;
#99 = APPROVAL_STATUS ( 'not_yet_approved' ) ;
#100 = SECURITY_CLASSIFICATION ( '', '', #127 ) ;
#101 = PRODUCT_DEFINITION ( 'UNKNOWN', '', #132, #49 ) ;
#102 = DATE_AND_TIME ( #70, #17 ) ;
#103 = EDGE_CURVE ( 'NONE', #66, #66, #47, .T. ) ;
#104 = DIRECTION ( 'NONE',  ( -3.491481338843133355E-15, 4.898587196589414801E-16, -1.000000000000000000 ) ) ;
#105 = APPLICATION_CONTEXT ( 'configuration controlled 3d designs of mechanical parts and assemblies' ) ;
#106 = FACE_BOUND ( 'NONE', #76, .T. ) ;
#107 = CC_DESIGN_PERSON_AND_ORGANIZATION_ASSIGNMENT ( #35, #42, ( #151 ) ) ;
#108 = APPROVAL_PERSON_ORGANIZATION ( #40, #149, #13 ) ;
#109 = CARTESIAN_POINT ( 'NONE',  ( 1.745740669421566283E-15, 20.00000000000000000, 0.4999999999999997780 ) ) ;
#110 = APPROVAL_PERSON_ORGANIZATION ( #158, #16, #69 ) ;
#111 = DATE_AND_TIME ( #22, #44 ) ;
#112 = APPROVAL_DATE_TIME ( #155, #149 ) ;
#113 = PERSON_AND_ORGANIZATION_ROLE ( 'design_supplier' ) ;
#114 = CC_DESIGN_PERSON_AND_ORGANIZATION_ASSIGNMENT ( #168, #83, ( #100 ) ) ;
#115 = FACE_OUTER_BOUND ( 'NONE', #4, .T. ) ;
#116 = PRODUCT_RELATED_PRODUCT_CATEGORY ( 'detail', '', ( #151 ) ) ;
#117 = CARTESIAN_POINT ( 'NONE',  ( 0.0000000000000000000, 0.0000000000000000000, 0.0000000000000000000 ) ) ;
#118 = ADVANCED_FACE ( 'NONE', ( #82, #120 ), #31, .F. ) ;
#119 = CARTESIAN_POINT ( 'NONE',  ( -8.551662891793920716E-30, 1.199807826129487137E-30, -2.449293598294707696E-15 ) ) ;
#120 = FACE_OUTER_BOUND ( 'NONE', #87, .T. ) ;
#121 = AXIS2_PLACEMENT_3D ( 'NONE', #119, #104, #148 ) ;
#122 = DIRECTION ( 'NONE',  ( -3.491481338843133355E-15, 4.898587196589414801E-16, -1.000000000000000000 ) ) ;
#123 = MANIFOLD_SOLID_BREP ( 'Corps-Déplacer/Copier1', #41 ) ;
#124 = VERTEX_POINT ( 'NONE', #109 ) ;
#125 = APPLICATION_PROTOCOL_DEFINITION ( 'international standard', 'config_control_design', 1994, #105 ) ;
#126 = EDGE_CURVE ( 'NONE', #124, #124, #156, .T. ) ;
#127 = SECURITY_CLASSIFICATION_LEVEL ( 'unclassified' ) ;
#128 = DATE_AND_TIME ( #56, #159 ) ;
#129 = EDGE_LOOP ( 'NONE', ( #27 ) ) ;
#130 = PLANE ( 'NONE',  #73 ) ;
#131 = ORIENTED_EDGE ( 'NONE', *, *, #126, .T. ) ;
#132 = PRODUCT_DEFINITION_FORMATION_WITH_SPECIFIED_SOURCE ( 'ANY', '', #151, .NOT_KNOWN. ) ;
#133 = ORIENTED_EDGE ( 'NONE', *, *, #88, .T. ) ;
#134 =( NAMED_UNIT ( * ) SI_UNIT ( $, .STERADIAN. ) SOLID_ANGLE_UNIT ( ) );
#135 = PLANE ( 'NONE',  #2 ) ;
#136 = CARTESIAN_POINT ( 'NONE',  ( 0.0000000000000000000, 0.0000000000000000000, 0.0000000000000000000 ) ) ;
#137 = CARTESIAN_POINT ( 'NONE',  ( 1.745740669421565494E-15, 5.000000000000000000, 0.4999999999999997780 ) ) ;
#138 = AXIS2_PLACEMENT_3D ( 'NONE', #8, #54, #11 ) ;
#139 = VERTEX_POINT ( 'NONE', #53 ) ;
#140 = PERSON_AND_ORGANIZATION ( #144, #97 ) ;
#141 = PERSON_AND_ORGANIZATION_ROLE ( 'creator' ) ;
#142 = CC_DESIGN_PERSON_AND_ORGANIZATION_ASSIGNMENT ( #145, #23, ( #132 ) ) ;
#143 = APPROVAL_STATUS ( 'not_yet_approved' ) ;
#144 = PERSON ( 'UNSPECIFIED', 'UNSPECIFIED', 'UNSPECIFIED', ('UNSPECIFIED'), ('UNSPECIFIED'), ('UNSPECIFIED') ) ;
#145 = PERSON_AND_ORGANIZATION ( #144, #97 ) ;
#146 = AXIS2_PLACEMENT_3D ( 'NONE', #136, #122, #10 ) ;
#147 = ORIENTED_EDGE ( 'NONE', *, *, #103, .T. ) ;
#148 = DIRECTION ( 'NONE',  ( 1.710332578358784143E-30, 1.000000000000000000, 4.898587196589415787E-16 ) ) ;
#149 = APPROVAL ( #143, 'UNSPECIFIED' ) ;
#150 = MECHANICAL_CONTEXT ( 'NONE', #71, 'mechanical' ) ;
#151 = PRODUCT ( '648', '648', '', ( #150 ) ) ;
#152 = DIRECTION ( 'NONE',  ( -3.491481338843133355E-15, 4.898587196589414801E-16, -1.000000000000000000 ) ) ;
#153 = CARTESIAN_POINT ( 'NONE',  ( 0.0000000000000000000, 0.0000000000000000000, 0.0000000000000000000 ) ) ;
#154 = APPROVAL_STATUS ( 'not_yet_approved' ) ;
#155 = DATE_AND_TIME ( #57, #75 ) ;
#156 = CIRCLE ( 'NONE', #48, 20.00000000000000000 ) ;
#157 = APPROVAL_DATE_TIME ( #128, #16 ) ;
#158 = PERSON_AND_ORGANIZATION ( #144, #97 ) ;
#159 = LOCAL_TIME ( 14, 0, 4.000000000000000000, #43 ) ;
#160 = CC_DESIGN_DATE_AND_TIME_ASSIGNMENT ( #111, #84, ( #101 ) ) ;
#161 = APPROVAL_PERSON_ORGANIZATION ( #98, #30, #67 ) ;
#162 = ORIENTED_EDGE ( 'NONE', *, *, #126, .F. ) ;
#163 = DIRECTION ( 'NONE',  ( -3.491481338843133355E-15, 4.898587196589414801E-16, -1.000000000000000000 ) ) ;
#164 = CARTESIAN_POINT ( 'NONE',  ( 0.0000000000000000000, 20.00000000000000000, 0.0000000000000000000 ) ) ;
#165 = FACE_OUTER_BOUND ( 'NONE', #62, .T. ) ;
#166 = CC_DESIGN_PERSON_AND_ORGANIZATION_ASSIGNMENT ( #140, #141, ( #101 ) ) ;
#167 = CC_DESIGN_APPROVAL ( #149, ( #101 ) ) ;
#168 = PERSON_AND_ORGANIZATION ( #144, #97 ) ;
#169 = COORDINATED_UNIVERSAL_TIME_OFFSET ( 1, 0, .AHEAD. ) ;
ENDSEC;
END-ISO-10303-21;
