ISO-10303-21;
HEADER;
FILE_DESCRIPTION (( 'STEP AP203' ),
    '1' );
FILE_NAME ('64796.step',
    '2021-11-01T09:46:01',
    ( '' ),
    ( '' ),
    'SwSTEP 2.0',
    'SolidWorks 2019',
    '' );
FILE_SCHEMA (( 'CONFIG_CONTROL_DESIGN' ));
ENDSEC;

DATA;
#1 = PRODUCT_DEFINITION ( 'UNKNOWN', '', #117, #125 ) ;
#2 = APPLICATION_PROTOCOL_DEFINITION ( 'international standard', 'config_control_design', 1994, #56 ) ;
#3 = CC_DESIGN_DATE_AND_TIME_ASSIGNMENT ( #26, #32, ( #164 ) ) ;
#4 = EDGE_LOOP ( 'NONE', ( #177 ) ) ;
#5 = LOCAL_TIME ( 10, 46, 1.000000000000000000, #99 ) ;
#6 = APPROVAL_DATE_TIME ( #119, #33 ) ;
#7 = DIRECTION ( 'NONE',  ( 4.275831445896958607E-31, 1.000000000000000000, 1.224646799147353207E-16 ) ) ;
#8 = EDGE_CURVE ( 'NONE', #173, #173, #222, .T. ) ;
#9 = CLOSED_SHELL ( 'NONE', ( #181, #142, #92 ) ) ;
#10 = FACE_OUTER_BOUND ( 'NONE', #40, .T. ) ;
#11 = DATE_AND_TIME ( #35, #5 ) ;
#12 = PLANE ( 'NONE',  #86 ) ;
#13 = PERSON_AND_ORGANIZATION ( #38, #25 ) ;
#14 = DIRECTION ( 'NONE',  ( 3.491481338843133355E-15, -1.224646799147353207E-16, 1.000000000000000000 ) ) ;
#15 = CIRCLE ( 'NONE', #175, 1.499999999999990896 ) ;
#16 = VERTEX_POINT ( 'NONE', #190 ) ;
#17 = CIRCLE ( 'NONE', #184, 1.200000000000000622 ) ;
#18 = CARTESIAN_POINT ( 'NONE',  ( 2.444036937190193033E-14, -1.200000000000001510, 6.999999999999999112 ) ) ;
#19 = EDGE_LOOP ( 'NONE', ( #107 ) ) ;
#20 = AXIS2_PLACEMENT_3D ( 'NONE', #217, #220, #65 ) ;
#21 = CARTESIAN_POINT ( 'NONE',  ( 0.0000000000000000000, 0.0000000000000000000, 0.0000000000000000000 ) ) ;
#22 = ORIENTED_EDGE ( 'NONE', *, *, #156, .T. ) ;
#23 = VERTEX_POINT ( 'NONE', #18 ) ;
#24 = EDGE_LOOP ( 'NONE', ( #193 ) ) ;
#25 = ORGANIZATION ( 'UNSPECIFIED', 'UNSPECIFIED', '' ) ;
#26 = DATE_AND_TIME ( #113, #43 ) ;
#27 = DIRECTION ( 'NONE',  ( -4.347612056767884799E-31, -1.000000000000000000, -1.227517819005651059E-16 ) ) ;
#28 = APPROVAL_DATE_TIME ( #200, #41 ) ;
#29 = CARTESIAN_POINT ( 'NONE',  ( 3.201776876318357424E-14, -2.664024771102660777E-16, 9.170253441421037266 ) ) ;
#30 = CARTESIAN_POINT ( 'NONE',  ( 2.444036937190193033E-14, 0.0000000000000000000, 6.999999999999999112 ) ) ;
#31 = AXIS2_PLACEMENT_3D ( 'NONE', #51, #148, #115 ) ;
#32 = DATE_TIME_ROLE ( 'classification_date' ) ;
#33 = APPROVAL ( #208, 'UNSPECIFIED' ) ;
#34 = DIRECTION ( 'NONE',  ( 3.491481338843133355E-15, -1.227517819005651059E-16, 1.000000000000000000 ) ) ;
#35 = CALENDAR_DATE ( 2021, 1, 11 ) ;
#36 = DIRECTION ( 'NONE',  ( -4.275831445896958607E-31, -1.000000000000000000, -1.224646799147353207E-16 ) ) ;
#37 = AXIS2_PLACEMENT_3D ( 'NONE', #21, #159, #127 ) ;
#38 = PERSON ( 'UNSPECIFIED', 'UNSPECIFIED', 'UNSPECIFIED', ('UNSPECIFIED'), ('UNSPECIFIED'), ('UNSPECIFIED') ) ;
#39 = APPROVAL_PERSON_ORGANIZATION ( #216, #207, #136 ) ;
#40 = EDGE_LOOP ( 'NONE', ( #213 ) ) ;
#41 = APPROVAL ( #46, 'UNSPECIFIED' ) ;
#42 = VERTEX_POINT ( 'NONE', #60 ) ;
#43 = LOCAL_TIME ( 10, 46, 1.000000000000000000, #196 ) ;
#44 = ORIENTED_EDGE ( 'NONE', *, *, #8, .T. ) ;
#45 = PERSON_AND_ORGANIZATION_ROLE ( 'design_owner' ) ;
#46 = APPROVAL_STATUS ( 'not_yet_approved' ) ;
#47 = PRODUCT_RELATED_PRODUCT_CATEGORY ( 'detail', '', ( #192 ) ) ;
#48 = FACE_OUTER_BOUND ( 'NONE', #211, .T. ) ;
#49 = CIRCLE ( 'NONE', #103, 1.499999999999992895 ) ;
#50 = CARTESIAN_POINT ( 'NONE',  ( 1.326762908760390423E-13, -4.653657836759941941E-15, 38.00000000000000000 ) ) ;
#51 = CARTESIAN_POINT ( 'NONE',  ( 1.326762908760390423E-13, -4.653657836759941941E-15, 38.00000000000000000 ) ) ;
#52 = ADVANCED_FACE ( 'NONE', ( #82, #67 ), #182, .T. ) ;
#53 = FACE_OUTER_BOUND ( 'NONE', #24, .T. ) ;
#54 = CARTESIAN_POINT ( 'NONE',  ( 2.444036937190193033E-14, -8.592624733039555931E-16, 6.999999999999999112 ) ) ;
#55 = MANIFOLD_SOLID_BREP ( 'Corps-Déplacer/Copier1[1]', #61 ) ;
#56 = APPLICATION_CONTEXT ( 'configuration controlled 3d designs of mechanical parts and assemblies' ) ;
#57 = EDGE_CURVE ( 'NONE', #84, #84, #17, .T. ) ;
#58 = LOCAL_TIME ( 10, 46, 1.000000000000000000, #116 ) ;
#59 = ADVANCED_FACE ( 'NONE', ( #152, #199 ), #144, .F. ) ;
#60 = CARTESIAN_POINT ( 'NONE',  ( 3.201776876318357424E-14, 1.499999999999990674, 9.170253441421037266 ) ) ;
#61 = CLOSED_SHELL ( 'NONE', ( #52, #77, #73, #59, #124 ) ) ;
#62 = MECHANICAL_CONTEXT ( 'NONE', #126, 'mechanical' ) ;
#63 = ORIENTED_EDGE ( 'NONE', *, *, #156, .F. ) ;
#64 = CARTESIAN_POINT ( 'NONE',  ( -1.924129419174264339E-30, 6.748937501461144163E-32, -5.510925685805913103E-16 ) ) ;
#65 = DIRECTION ( 'NONE',  ( -4.285855558155653280E-31, -1.000000000000000000, -1.227517819005651059E-16 ) ) ;
#66 = CC_DESIGN_APPROVAL ( #207, ( #117 ) ) ;
#67 = FACE_OUTER_BOUND ( 'NONE', #145, .T. ) ;
#68 = COORDINATED_UNIVERSAL_TIME_OFFSET ( 1, 0, .AHEAD. ) ;
#69 = DIRECTION ( 'NONE',  ( 0.0000000000000000000, 1.000000000000000000, 0.0000000000000000000 ) ) ;
#70 = CALENDAR_DATE ( 2021, 1, 11 ) ;
#71 = CARTESIAN_POINT ( 'NONE',  ( 2.444036937190193349E-14, 1.124819836996383900E-32, 7.000000000000000000 ) ) ;
#72 = LOCAL_TIME ( 10, 46, 1.000000000000000000, #134 ) ;
#73 = ADVANCED_FACE ( 'NONE', ( #10 ), #153, .F. ) ;
#74 = AXIS2_PLACEMENT_3D ( 'NONE', #118, #34, #219 ) ;
#75 = UNCERTAINTY_MEASURE_WITH_UNIT (LENGTH_MEASURE( 1.000000000000000082E-05 ), #87, 'distance_accuracy_value', 'NONE');
#76 = PERSON_AND_ORGANIZATION ( #38, #25 ) ;
#77 = ADVANCED_FACE ( 'NONE', ( #185, #166 ), #106, .T. ) ;
#78 = DIRECTION ( 'NONE',  ( -3.491481338843133355E-15, 1.224646799147353207E-16, -1.000000000000000000 ) ) ;
#79 = FACE_OUTER_BOUND ( 'NONE', #91, .T. ) ;
#80 = DIRECTION ( 'NONE',  ( -3.491481338843133355E-15, 1.224646799147353207E-16, -1.000000000000000000 ) ) ;
#81 = PERSON_AND_ORGANIZATION_ROLE ( 'classification_officer' ) ;
#82 = FACE_OUTER_BOUND ( 'NONE', #4, .T. ) ;
#83 = CALENDAR_DATE ( 2021, 1, 11 ) ;
#84 = VERTEX_POINT ( 'NONE', #111 ) ;
#85 = EDGE_CURVE ( 'NONE', #16, #16, #141, .T. ) ;
#86 = AXIS2_PLACEMENT_3D ( 'NONE', #64, #98, #135 ) ;
#87 =( LENGTH_UNIT ( ) NAMED_UNIT ( * ) SI_UNIT ( .MILLI., .METRE. ) );
#88 = EDGE_LOOP ( 'NONE', ( #44 ) ) ;
#89 = CC_DESIGN_PERSON_AND_ORGANIZATION_ASSIGNMENT ( #202, #180, ( #1 ) ) ;
#90 = APPROVAL_ROLE ( '' ) ;
#91 = EDGE_LOOP ( 'NONE', ( #143 ) ) ;
#92 = ADVANCED_FACE ( 'NONE', ( #53 ), #12, .F. ) ;
#93 = ORIENTED_EDGE ( 'NONE', *, *, #57, .T. ) ;
#94 = PERSON_AND_ORGANIZATION ( #38, #25 ) ;
#95 = DIRECTION ( 'NONE',  ( 4.275831445896958607E-31, 1.000000000000000000, 1.224646799147353207E-16 ) ) ;
#96 = DIRECTION ( 'NONE',  ( 0.0000000000000000000, 1.000000000000000000, 0.0000000000000000000 ) ) ;
#97 = SECURITY_CLASSIFICATION_LEVEL ( 'unclassified' ) ;
#98 = DIRECTION ( 'NONE',  ( 3.491481338843133355E-15, -1.224646799147353207E-16, 1.000000000000000000 ) ) ;
#99 = COORDINATED_UNIVERSAL_TIME_OFFSET ( 1, 0, .AHEAD. ) ;
#100 = DIRECTION ( 'NONE',  ( 3.491481338843133355E-15, -1.227517819005651059E-16, 1.000000000000000000 ) ) ;
#101 = PERSON_AND_ORGANIZATION ( #38, #25 ) ;
#102 = DIRECTION ( 'NONE',  ( -3.491481338843133355E-15, 1.224646799147353207E-16, -1.000000000000000000 ) ) ;
#103 = AXIS2_PLACEMENT_3D ( 'NONE', #205, #102, #112 ) ;
#104 = CC_DESIGN_APPROVAL ( #33, ( #1 ) ) ;
#105 = VERTEX_POINT ( 'NONE', #146 ) ;
#106 = CONICAL_SURFACE ( 'NONE', #212, 1.199999999999992184, 0.7853981633974468357 ) ;
#107 = ORIENTED_EDGE ( 'NONE', *, *, #129, .T. ) ;
#108 = EDGE_LOOP ( 'NONE', ( #22 ) ) ;
#109 = ORIENTED_EDGE ( 'NONE', *, *, #85, .T. ) ;
#110 = APPROVAL_STATUS ( 'not_yet_approved' ) ;
#111 = CARTESIAN_POINT ( 'NONE',  ( 2.444036937190193033E-14, -1.200000000000001510, 6.999999999999999112 ) ) ;
#112 = DIRECTION ( 'NONE',  ( 0.0000000000000000000, 1.000000000000000000, 0.0000000000000000000 ) ) ;
#113 = CALENDAR_DATE ( 2021, 1, 11 ) ;
#114 = CARTESIAN_POINT ( 'NONE',  ( 2.444036937190193349E-14, 1.124819836996383900E-32, 7.000000000000000000 ) ) ;
#115 = DIRECTION ( 'NONE',  ( 0.0000000000000000000, 1.000000000000000000, 0.0000000000000000000 ) ) ;
#116 = COORDINATED_UNIVERSAL_TIME_OFFSET ( 1, 0, .AHEAD. ) ;
#117 = PRODUCT_DEFINITION_FORMATION_WITH_SPECIFIED_SOURCE ( 'ANY', '', #192, .NOT_KNOWN. ) ;
#118 = CARTESIAN_POINT ( 'NONE',  ( 2.444036937190193033E-14, -8.592624733039555931E-16, 6.999999999999999112 ) ) ;
#119 = DATE_AND_TIME ( #83, #130 ) ;
#120 = PLANE ( 'NONE',  #204 ) ;
#121 = AXIS2_PLACEMENT_3D ( 'NONE', #155, #78, #7 ) ;
#122 = CC_DESIGN_PERSON_AND_ORGANIZATION_ASSIGNMENT ( #13, #183, ( #117 ) ) ;
#123 = CC_DESIGN_SECURITY_CLASSIFICATION ( #164, ( #117 ) ) ;
#124 = ADVANCED_FACE ( 'NONE', ( #201 ), #120, .F. ) ;
#125 = DESIGN_CONTEXT ( 'detailed design', #56, 'design' ) ;
#126 = APPLICATION_CONTEXT ( 'configuration controlled 3d designs of mechanical parts and assemblies' ) ;
#127 = DIRECTION ( 'NONE',  ( 1.000000000000000000, 0.0000000000000000000, 0.0000000000000000000 ) ) ;
#128 = ORIENTED_EDGE ( 'NONE', *, *, #191, .F. ) ;
#129 = EDGE_CURVE ( 'NONE', #42, #42, #15, .T. ) ;
#130 = LOCAL_TIME ( 10, 46, 1.000000000000000000, #68 ) ;
#131 =( GEOMETRIC_REPRESENTATION_CONTEXT ( 3 ) GLOBAL_UNCERTAINTY_ASSIGNED_CONTEXT ( ( #75 ) ) GLOBAL_UNIT_ASSIGNED_CONTEXT ( ( #87, #214, #176 ) ) REPRESENTATION_CONTEXT ( 'NONE', 'WORKASPACE' ) );
#132 = PERSON_AND_ORGANIZATION ( #38, #25 ) ;
#133 = DIRECTION ( 'NONE',  ( 0.0000000000000000000, -1.000000000000000000, 0.0000000000000000000 ) ) ;
#134 = COORDINATED_UNIVERSAL_TIME_OFFSET ( 1, 0, .AHEAD. ) ;
#135 = DIRECTION ( 'NONE',  ( -4.275831445896958607E-31, -1.000000000000000000, -1.224646799147353207E-16 ) ) ;
#136 = APPROVAL_ROLE ( '' ) ;
#137 = DIRECTION ( 'NONE',  ( 3.491481338843133355E-15, -1.227517819005651059E-16, 1.000000000000000000 ) ) ;
#138 = DIRECTION ( 'NONE',  ( -4.285855558155653280E-31, -1.000000000000000000, -1.227517819005651059E-16 ) ) ;
#139 = APPROVAL_PERSON_ORGANIZATION ( #94, #41, #168 ) ;
#140 = DIRECTION ( 'NONE',  ( 3.491481338843133355E-15, -1.224646799147353207E-16, 1.000000000000000000 ) ) ;
#141 = CIRCLE ( 'NONE', #20, 1.199999999999999067 ) ;
#142 = ADVANCED_FACE ( 'NONE', ( #167, #79 ), #186, .T. ) ;
#143 = ORIENTED_EDGE ( 'NONE', *, *, #57, .F. ) ;
#144 = TOROIDAL_SURFACE ( 'NONE', #206, 9.199999999999999289, 8.000000000000000000 ) ;
#145 = EDGE_LOOP ( 'NONE', ( #209 ) ) ;
#146 = CARTESIAN_POINT ( 'NONE',  ( 1.316288464743861212E-13, 1.499999999999988232, 37.69999999999999574 ) ) ;
#147 = DATE_AND_TIME ( #170, #58 ) ;
#148 = DIRECTION ( 'NONE',  ( -3.491481338843133355E-15, 1.224646799147353207E-16, -1.000000000000000000 ) ) ;
#149 = DATE_TIME_ROLE ( 'creation_date' ) ;
#150 = CIRCLE ( 'NONE', #74, 1.200000000000000622 ) ;
#151 = CARTESIAN_POINT ( 'NONE',  ( -6.413731847436034514E-31, 0.0000000000000000000, -1.836965810494968570E-16 ) ) ;
#152 = FACE_OUTER_BOUND ( 'NONE', #108, .T. ) ;
#153 = PLANE ( 'NONE',  #174 ) ;
#154 = PERSON_AND_ORGANIZATION ( #38, #25 ) ;
#155 = CARTESIAN_POINT ( 'NONE',  ( 0.0000000000000000000, 0.0000000000000000000, 0.0000000000000000000 ) ) ;
#156 = EDGE_CURVE ( 'NONE', #23, #23, #150, .T. ) ;
#157 = CC_DESIGN_PERSON_AND_ORGANIZATION_ASSIGNMENT ( #154, #81, ( #164 ) ) ;
#158 = AXIS2_PLACEMENT_3D ( 'NONE', #151, #100, #138 ) ;
#159 = DIRECTION ( 'NONE',  ( 0.0000000000000000000, 0.0000000000000000000, 1.000000000000000000 ) ) ;
#160 = CC_DESIGN_PERSON_AND_ORGANIZATION_ASSIGNMENT ( #101, #172, ( #117 ) ) ;
#161 = PRODUCT_DEFINITION_SHAPE ( 'NONE', 'NONE',  #1 ) ;
#162 = EDGE_LOOP ( 'NONE', ( #128 ) ) ;
#163 = EDGE_LOOP ( 'NONE', ( #109 ) ) ;
#164 = SECURITY_CLASSIFICATION ( '', '', #97 ) ;
#165 = APPROVAL_DATE_TIME ( #11, #207 ) ;
#166 = FACE_BOUND ( 'NONE', #88, .T. ) ;
#167 = FACE_OUTER_BOUND ( 'NONE', #163, .T. ) ;
#168 = APPROVAL_ROLE ( '' ) ;
#169 = DIRECTION ( 'NONE',  ( -3.491481338843133355E-15, 1.227517819005651059E-16, -1.000000000000000000 ) ) ;
#170 = CALENDAR_DATE ( 2021, 1, 11 ) ;
#171 = PLANE ( 'NONE',  #198 ) ;
#172 = PERSON_AND_ORGANIZATION_ROLE ( 'creator' ) ;
#173 = VERTEX_POINT ( 'NONE', #178 ) ;
#174 = AXIS2_PLACEMENT_3D ( 'NONE', #203, #80, #95 ) ;
#175 = AXIS2_PLACEMENT_3D ( 'NONE', #29, #169, #96 ) ;
#176 =( NAMED_UNIT ( * ) SI_UNIT ( $, .STERADIAN. ) SOLID_ANGLE_UNIT ( ) );
#177 = ORIENTED_EDGE ( 'NONE', *, *, #191, .T. ) ;
#178 = CARTESIAN_POINT ( 'NONE',  ( 1.326762908760390423E-13, 1.199999999999987521, 38.00000000000000000 ) ) ;
#179 = DIRECTION ( 'NONE',  ( 3.491481338843133355E-15, -1.227517819005651059E-16, 1.000000000000000000 ) ) ;
#180 = PERSON_AND_ORGANIZATION_ROLE ( 'creator' ) ;
#181 = ADVANCED_FACE ( 'NONE', ( #48 ), #171, .T. ) ;
#182 = CYLINDRICAL_SURFACE ( 'NONE', #121, 1.499999999999990896 ) ;
#183 = PERSON_AND_ORGANIZATION_ROLE ( 'design_supplier' ) ;
#184 = AXIS2_PLACEMENT_3D ( 'NONE', #54, #179, #133 ) ;
#185 = FACE_OUTER_BOUND ( 'NONE', #162, .T. ) ;
#186 = CYLINDRICAL_SURFACE ( 'NONE', #158, 1.199999999999999734 ) ;
#187 = CC_DESIGN_DATE_AND_TIME_ASSIGNMENT ( #147, #149, ( #1 ) ) ;
#188 = MANIFOLD_SOLID_BREP ( 'Corps-Déplacer/Copier1[2]', #9 ) ;
#189 = CC_DESIGN_APPROVAL ( #41, ( #164 ) ) ;
#190 = CARTESIAN_POINT ( 'NONE',  ( -1.584463421923956694E-30, -1.199999999999999067, -4.538083604505108423E-16 ) ) ;
#191 = EDGE_CURVE ( 'NONE', #105, #105, #49, .T. ) ;
#192 = PRODUCT ( '64796', '64796', '', ( #62 ) ) ;
#193 = ORIENTED_EDGE ( 'NONE', *, *, #85, .F. ) ;
#194 = EDGE_LOOP ( 'NONE', ( #63 ) ) ;
#195 = CC_DESIGN_PERSON_AND_ORGANIZATION_ASSIGNMENT ( #76, #45, ( #192 ) ) ;
#196 = COORDINATED_UNIVERSAL_TIME_OFFSET ( 1, 0, .AHEAD. ) ;
#197 = DIRECTION ( 'NONE',  ( -4.275831445896958607E-31, -1.000000000000000000, -1.224646799147353207E-16 ) ) ;
#198 = AXIS2_PLACEMENT_3D ( 'NONE', #71, #14, #36 ) ;
#199 = FACE_OUTER_BOUND ( 'NONE', #19, .T. ) ;
#200 = DATE_AND_TIME ( #70, #72 ) ;
#201 = FACE_OUTER_BOUND ( 'NONE', #194, .T. ) ;
#202 = PERSON_AND_ORGANIZATION ( #38, #25 ) ;
#203 = CARTESIAN_POINT ( 'NONE',  ( 1.326762908760390423E-13, 8.998558695971017012E-33, 38.00000000000000000 ) ) ;
#204 = AXIS2_PLACEMENT_3D ( 'NONE', #114, #140, #197 ) ;
#205 = CARTESIAN_POINT ( 'NONE',  ( 1.316288464743861212E-13, -4.616918432785521081E-15, 37.69999999999999574 ) ) ;
#206 = AXIS2_PLACEMENT_3D ( 'NONE', #30, #137, #27 ) ;
#207 = APPROVAL ( #110, 'UNSPECIFIED' ) ;
#208 = APPROVAL_STATUS ( 'not_yet_approved' ) ;
#209 = ORIENTED_EDGE ( 'NONE', *, *, #129, .F. ) ;
#210 = APPLICATION_PROTOCOL_DEFINITION ( 'international standard', 'config_control_design', 1994, #126 ) ;
#211 = EDGE_LOOP ( 'NONE', ( #93 ) ) ;
#212 = AXIS2_PLACEMENT_3D ( 'NONE', #50, #221, #69 ) ;
#213 = ORIENTED_EDGE ( 'NONE', *, *, #8, .F. ) ;
#214 =( NAMED_UNIT ( * ) PLANE_ANGLE_UNIT ( ) SI_UNIT ( $, .RADIAN. ) );
#215 = ADVANCED_BREP_SHAPE_REPRESENTATION ( '64796', ( #55, #188, #37 ), #131 ) ;
#216 = PERSON_AND_ORGANIZATION ( #38, #25 ) ;
#217 = CARTESIAN_POINT ( 'NONE',  ( -1.070160754945278756E-30, 1.507510228209014908E-32, -3.065062221698327843E-16 ) ) ;
#218 = SHAPE_DEFINITION_REPRESENTATION ( #161, #215 ) ;
#219 = DIRECTION ( 'NONE',  ( 0.0000000000000000000, -1.000000000000000000, 0.0000000000000000000 ) ) ;
#220 = DIRECTION ( 'NONE',  ( 3.491481338843133355E-15, -1.227517819005651059E-16, 1.000000000000000000 ) ) ;
#221 = DIRECTION ( 'NONE',  ( -3.491481338843133355E-15, 1.224646799147353207E-16, -1.000000000000000000 ) ) ;
#222 = CIRCLE ( 'NONE', #31, 1.199999999999992184 ) ;
#223 = APPROVAL_PERSON_ORGANIZATION ( #132, #33, #90 ) ;
ENDSEC;
END-ISO-10303-21;
